Song name
# A B C D E F G H I J K L M N O P Q R S T U V W X Y Z

Shooting Blanks - New Life tab

Help us improve GuitareTab! Take a short survey!
Here's the chorus for our second song, New Life.
Enjoy!

[verse 1]

Chrous:
e|---------------------------------------------------------------------|
B|---------------------------------------------------------------------|
G|---------------------------------------------------------------------|
D|--4-4-4-4-4-4-4-0--4-4-4-4-4-4-4-0--3-3-3-3-3-3-3-3--3-3-3-3-3-3-4-4~|
A|--5-5-5-5-5-5-5-0--4-4-4-4-4-4-4-0--5-5-5-5-5-5-5-5--3-3-3-3-3-3-4-4~|
E|---------------------------------------------------------------------|

[verse 2]

Chorus:
e|---------------------------------------------------------------------|  
B|---------------------------------------------------------------------|  
G|---------------------------------------------------------------------| 
D|--4-4-4-4-4-4-4-0--4-4-4-4-4-4-4-0--3-3-3-3-3-3-3-3--3-3-3-3-3-3-4-4~|  
A|--5-5-5-5-5-5-5-0--4-4-4-4-4-4-4-0--5-5-5-5-5-5-5-5--3-3-3-3-3-3-4-4~|  
E|---------------------------------------------------------------------|  

Then the special endng riff to finish off the song:

e|---------------------------------------------|
B|---------------------------------------------|
G|--5-5-5-5-5-5-5-5-5-5-5-5-5-5-5-5-5-5-5---7~~|
D|--7-7-7-7-7-7-7-7-7-7-7-7-7-7-7-7-7-7-7---7~~|
A|--7-7-7-7-7-7-7-7-7-7-7-7-7-7-7-7-7-7-7---7~~|
E|---------------------------------------------|


Related for New Life tab