Song name
# A B C D E F G H I J K L M N O P Q R S T U V W X Y Z

Short Stack - Ladies And Gentlemen tab

Im pretty sure that short stack play in half step down but anyway, this tab is in standard.
oh and if someone can figure out the main riff let me know cuz i cant quite get it.

Verse: (No main riff sorry! =/ )
|----------------------------------------------------------------|
|----------------------------------------------------------------|
|--6-6-6-6-6-6-6-6----------------9-9-9-9-9-9-9-9-4-4-4-4-4-4-4--|
|--6-6-6-6-6-6-6-6-7-7-7-7-7-7-7--9-9-9-9-9-9-9-9-4-4-4-4-4-4-4--|
|--4-4-4-4-4-4-4-4-7-7-7-7-7-7-7--7-7-7-7-7-7-7-7-2-2-2-2-2-2-2--| x2
|------------------5-5-5-5-5-5-5---------------------------------|

Pre Chorus: (wuh uh uh oh)
|----------------------------------------------|
|-----------------------------------------|----| 2nd time dont play the 244
|--6-6-6-6/--22222222----------44444444---|----|  (b) chord
|--6-6-6-6/--22222222-22222222-44444444---|----|
|--4-4-4-4/--00000000-22222222-22222222---|x2--|
|---------------------00000000------------|----|
             ........ ........ ........


Chorus: (Just Strum each chord heaps)
NOTE: There is a higher octave part in the chorus that i cant work out.
so if it sounds funny its cos theres actually 2 guitars.
|--------------|
|--------------|
|--6--2-----4--| x2
|--6--2--2--4--|
|--4--0--2--2--|
|--------0-----|

no main riff bit soz!!!

Repeat verse once instead of twice and the pre chorus as normal
Repeat chorus

and yeah thats basically it, i cant do the bridge either but you can get away with 
the verse over it
oh and if anyone works out any of the bits mesage me on my UG profile?
hope it helps =]
Tap to rate this tab
 
# A B C D E F G H I J K L M N O P Q R S T U V W X Y Z