Song name
# A B C D E F G H I J K L M N O P Q R S T U V W X Y Z

Short Stack - Enough For Now tab

Help us improve GuitareTab! Take a short survey!
  ------------------------------------------------------------------------
                      enough for now - short stack
  ------------------------------------------------------------------------
  tabbed by: jack prater

  easy song, im pretty sure that this tab is absolutely correct.

  tuning: standard

  Intro
  E----------0--1-----------0--1-----------0--1-----------1--0------|
  B----3-3----------1-1-1-------------------------1-1-1----------3--|
  G--------------------------------3-3-3----------------------------| x3
  D-----------------------------------------------------------------|
  A-----------------------------------------------------------------|
  E-----------------------------------------------------------------|

  Solo
  E--------0--1-0--------0--1-0-------0--1-----------3--1-0---------|
  B----3----------3--1----------3------------1-1-1------------3-----|
  G--------------------------------3--------------------------------| x2
  D-----------------------------------------------------------------|
  A-----------------------------------------------------------------|
  E-----------------------------------------------------------------|

  Listen to the song to get the timing right.

  I couldnt figure out the verse and chorus due to the guitar is so quite.
  But what i can tabbed i think is exact.

  If you see something wrong please email me on jack_rox_95@hotmail.com
Related for Enough For Now tab