Song name
# A B C D E F G H I J K L M N O P Q R S T U V W X Y Z

Short Stack - Princess tab

Princess (Guitar)
SHORT STACK

tabbed by peter :)
www.myspace.com/chasingamyau


VERSE (the rhythm and amount of times to strum on each chord is not included, 
	listen to the song to work it out)
E|----------------------|
B|----------------------|
G|--8-------------------|
D|--6---8-----6-----8---|
A|------6-----4-----6---|
E|----------------------|

|-----------------------------------|
|-----------11-11-------------------|
|-88-77--88-------88--77--88--------|
|-----------------------------------|
|-----------------------------------|
|-----------------------------------| x2

E|----------------------|
B|----------------------|
G|--8-------------------|
D|--6---8-----6-----8---|
A|------6-----4-----6---|
E|----------------------|

|---------------------------------------------------|
|-----------11-11----------------------------11-----|
|-88-77--88-------88--77--88------88--77—88---------|
|---------------------------------------------------|
|---------------------------------------------------|
|---------------------------------------------------|

CHORUS (the rhythm and amount of times to strum on each chord is not included
	listen to the song to work it out)
E|-----------------------------------------------------------|
B|--------------------------------------11-11----------------|
G|-8----10---------------8---88--77--88-------88-77-88-------|
D|-8----10----10----8----8-----------------------------------|
A|-6----8-----10----8----6-----------------------------------|
E|------------8-----6----------------------------------------|

E|-----------------------------|
B|-----------------------------|
G|-8----10---------------8-----|
D|-8----10----10----8----8-----|
A|-6----8-----10----8----6-----|
E|------------8-----6----------|

RIFF
E|----------------------------------------------------------|
B|----------------------------------------------------------|
G|--88---88---88---88-----10-10---10-10---10-10---10-10-----|
D|-----6----6----6----6---------8-------8-------8-------8---|
A|----------------------------------------------------------|
E|----------------------------------------------------------|

E|-----------------------------------------------------|
B|-----------------------------------------------------|
G|-------8-------8-----7-----7-----6-8-10-8------------|
D|-10-10---10-10----88----88----88---------------------|
A|-----------------------------------------------------|
E|-----------------------------------------------------|

VERSE (the rhythm and amount of times to strum on each chord is not included, 
	listen to the song to work it out)
E|----------------------|
B|----------------------|
G|--8-------------------|
D|--6---8-----6-----8---|
A|------6-----4-----6---|
E|----------------------|

E|-------------------------|
B|-------------------------|
G|-------------------------|
D|-------------------------|
A|-------------------------|
E|--6-8-6-8-6--------------|
   Palm mute

E|----------------------|
B|----------------------|
G|--8-------------------|
D|--6---8-----6-----8---|
A|------6-----4-----6---|
E|----------------------| 

E|----------------------|
B|----------------------|
G|--8-------------------|
D|--6---8-----6-----8---|
A|------6-----4-----6---|
E|----------------------|

E|----------------------|
B|----------------------|
G|--8-------------------|
D|--6---8-----6-----8---|
A|------6-----4-----6---|
E|----------------------|

PAUSE – (drums) “hey, hey,hey, hey”

CHORUS (the rhythm and amount of times to strum on each chord is not included
	listen to the song to work it out)
E|-----------------------------------------------------------|
B|--------------------------------------11-11----------------|
G|-8----10---------------8---88--77--88-------88-77-88-------|
D|-8----10----10----8----8-----------------------------------|
A|-6----8-----10----8----6-----------------------------------|
E|------------8-----6----------------------------------------|

E|-----------------------------|
B|-----------------------------|
G|-8----10---------------8-----|
D|-8----10----10----8----8-----|
A|-6----8-----10----8----6-----|
E|------------8-----6----------|



RIFF
E|----------------------------------------------------------|
B|----------------------------------------------------------|
G|--88---88---88---88-----10-10---10-10---10-10---10-10-----|
D|-----6----6----6----6---------8-------8-------8-------8---|
A|----------------------------------------------------------|
E|----------------------------------------------------------|

E|-------------------------------------------------|
B|-------------------------------------------------|
G|-------8-------8-----7-----7-----6-8-10-8-6--8-6-|
D|-10-10---10-10----88----88----88-----------------|
A|-------------------------------------------------|
E|-------------------------------------------------|
                                           ^just finish off with random notes

PAUSE (drums) “princes, why you so contagious..”

E|-------------------|
B|-------------------|
G|--8-8--------------|
D|--8-8--------------|
A|--6-6--------------|
E|-------------------|

CHORUS (the rhythm and amount of times to strum on each chord is not included
	listen to the song to work it out)
E|-----------------------------------------------------------|
B|--------------------------------------11-11----------------|
G|-8----10---------------8---88--77--88-------88-77-88-------|
D|-8----10----10----8----8-----------------------------------|
A|-6----8-----10----8----6-----------------------------------|
E|------------8-----6----------------------------------------|

E|-----------------------------|
B|-----------------------------|
G|-8----10---------------8-----|
D|-8----10----10----8----8-----|
A|-6----8-----10----8----6-----|
E|------------8-----6----------|
Tap to rate this tab
# A B C D E F G H I J K L M N O P Q R S T U V W X Y Z