Short Stack - Planets tab

-------------------------------------------------------------------------------
			     planets - short stack
-------------------------------------------------------------------------------
Tabbed by:
Email:

Tuning:

e|---------------------------------------------------------------------------|
B|---------------------------6-5------------6-5------------6-5---------------|
G|--3-----6-5-------------3------6-3-----3------6-3-----3------6-6-5-5-6-3-3-|
D|--3--4--6-5----------------------------------------------------------------|
A|--1--4--4-3----------------------------------------------------------------|
E|-----2---------------------------------------------------------------------|
Tap to rate this tab
 
# A B C D E F G H I J K L M N O P Q R S T U V W X Y Z