Song name
# A B C D E F G H I J K L M N O P Q R S T U V W X Y Z

Short Stack - Drop Dead Gorgeous tab

-------------------------------------------------------------------------------
			     Drop Dead Gorgeous - Short Stack
-------------------------------------------------------------------------------
Tabbed by: Zac Thompson
Intro to chorus

Tuning: Drop D

Intro       x2
e|---------------------------------------------------------------------------|
B|---------------------------------------------------------------------------|
G|---------------------------------------------------------------------------|
D|---------------------------------------------------------------------------|   
A|---8---------8-8---8-8-----3-3---3-3-----10-10---10-10-----1-1--1-1--3-----|
E|---8-//////--8-8---8-8-----3-3---3-3-----10-10---10-10-----1-1--1-1--3-----|

Verse x2
e|---------------------------------------------------------------------------|
B|---------------------------------------------------------------------------|
G|---------------------------------------------------------------------------|
D|---------------------------------------------------------------------------|
A|---8-8---8-8--8-----3-3---3-3--3-----10-10---10-10--10-----1-1--1-1--3-----|
E|---8-8---8-8--8-----3-3---3-3--3-----10-10---10-10--10-----1-1--1-1--3-----|


e|---------------------------------------------------------------------------|
B|---------------------------------------------------------------------------|
G|---------------------------------------------------------------------------|
D|---------------------------------------------------------------------------|
A|--13-12-13-15-8--------------------13-12-13-15-8---------------------------|
E|--13-12-13-15-8--------------------13-12-13-15-8---------------------------|

Chorus
e|------------------------------------------------------------------------------------------------|
B|------------------------------------------------------------------------------------------------|
G|------------------------------------------------------------------------------------------------|
D|------------------------------------------------------------------------------------------------|
A|---8-8-8-8-8-8-8-8---12-12-12-12-12-12-12-12---13-13-13-13-13-13-13-13-13-13-13-13-13-13-13-13--|
E|---8-8-8-8-8-8-8-8---12-12-12-12-12-12-12-12---13-13-13-13-13-13-13-13-13-13-13-13-13-13-13-13--|
Tap to rate this tab
 
# A B C D E F G H I J K L M N O P Q R S T U V W X Y Z