Song name
# A B C D E F G H I J K L M N O P Q R S T U V W X Y Z

Short Stack - Drop Dead Gorgeous tab

Originally tabbed by Zacothewacko, I just added the missing parts like the change in the 
verse, the post and prechorus's, the bridge, and final chorus.

Tuning: Drop D

It's pretty accurate, there's a few things I'm not sure about, but they still sound fine.
For the end of the prechorus i like to use
13-12-15-13-|
13-12-15-13-|
but you could also use
13-12-13-15-|
13-12-13-15-| depending on which sounds better to you.

Intro
e|--------------|---------------------------------------------------------|
B|--------------|---------------------------------------------------------|
G|--------------|---------------------------------------------------------|
D|--------------|---------------------------------------------------------|
A|---8----------|-8-8---8-8----3-3---3-3----10-10---10-10----1-1--1-1--3--|
E|---8-///////--|-8-8---8-8----3-3---3-3----10-10---10-10----1-1--1-1--3--| x2
  1st time only

Verse 1
e|------------------------------------------------------------------------|
B|------------------------------------------------------------------------|
G|------------------------------------------------------------------------|
D|------------------------------------------------------------------------|
A|---8-8---8-8--8-----3-3---3-3--3-----10-10---10-10--10-----1-1--1-1--3--|
E|---8-8---8-8--8-----3-3---3-3--3-----10-10---10-10--10-----1-1--1-1--3--| x2

Prechorus
e|--------------------------------------------------|---------------------|
B|--------------------------------------------------|---------------------|
G|--------------------------------------------------|---------------------|
D|--------------------------------------------------|---------------------|
A|-88888888-33333333-101010101010101013-12-15-13----|--8~----riff i cant--|
E|-88888888-33333333-101010101010101013-12-15-13x2--|--8~----figure out---|
   ........ ........  . . . . . . . .

Chorus
e|--------------------------------------------------------------|----------|
B|--------------------------------------------------------------|----------|
G|--------------------------------------------------------------|----------|
D|--------------------------------------------------------------|----------|
A|--88888888-1212121212121212-13131313131313131313131313131313--|-8~---8-8-|
E|--88888888-1212121212121212-13131313131313131313131313131313--|-8~---8-8-|

Post Chorus
e|--------------------------------------------------|
B|--------------------------------------------------|
G|--------------------------------------------------|the ones could
D|--------------------------------------------------|also be the end
A|-88888888-33333333-1010101010101010-11111111------|of the prechorus,
E|-88888888-33333333-1010101010101010-11111111------|I cant quite tell

Verse 2 part 1
e|------------------------------------------------------|
B|------------------------------------------------------|only do the ones
G|------------------------------------------------------|in brackets the
D|------------------------------------------------------|first time
A|---8-8-----------3-3-----------10-10------------1-(1)-|
E|---8-8-----------3-3-----------10-10------------1-(1)-|x2

verse 2 part 2
e|------------------------------------------------------------------------|
B|------------------------------------------------------------------------|
G|------------------------------------------------------------------------|
D|------------------------------------------------------------------------|
A|---8-8---8-8--8-----3-3---3-3--3-----10-10---10-10--10-----1-1--1-1--3--|
E|---8-8---8-8--8-----3-3---3-3--3-----10-10---10-10--10-----1-1--1-1--3--| x2

Chorus
Chorus
e|--------------------------------------------------------------|----------|
B|--------------------------------------------------------------|----------|
G|--------------------------------------------------------------|----------|
D|--------------------------------------------------------------|----------|
A|--88888888-1212121212121212-13131313131313131313131313131313--|-8~---8-8-|
E|--88888888-1212121212121212-13131313131313131313131313131313--|-8~---8-8-|

Bridge
e|----------------------------------------------------------------|--------|
B|----------------------------------------------------------------|--------|
G|----------------------------------------------------------------|--------|
D|----------------------------------------------------------------|--------|
A|--8-8---8-8--8----3-3---3-3--3----10-10---10-10--10----1-1--1-1-|-8~--3~-|
E|--8-8---8-8--8----3-3---3-3--3----10-10---10-10--10----1-1--1-1-|-8~--3~-|x2

Last Chorus
e|----------------------------------------------|
B|----------------------------------------------|
G|----------------------------------------------|
D|----------------------------------------------|
A|-8-8------33333333-1010101010101010-11111111--|
E|-8-8------33333333-1010101010101010-11111111--|
                                      ^1 not 11
Last Chorus continued
e|--------------------------------------------------|
B|--------------------------------------------------|
G|--------------------------------------------------|
D|--------------------------------------------------|
A|-88888888-33333333-1010101010101010-11111111------|
E|-88888888-33333333-1010101010101010-11111111---x2-|
e|--------------------------------------------------|

Last Chorus continued/outro
B|--------------------------------------------------|
G|--------------------------------------------------|
D|--------------------------------------------------|
A|-88888888-33333333-1010101010101010-8-8-----------|
E|-88888888-33333333-1010101010101010-8-8-----------|
Tap to rate this tab
# A B C D E F G H I J K L M N O P Q R S T U V W X Y Z