Song name
# A B C D E F G H I J K L M N O P Q R S T U V W X Y Z

Short Stack - Soul tab

SOUL - Short Stack
Tabbed by: Mitchell
Tuning: Standard

Intro:
e|---------------------------------------------------------------------------|
B|---------------------------------------------------------------------------|
G|---------------------------------------------------------------------------|
D|-------------------------10h9--10h9--9-------10h9--10h9--9-----------------|
A|--7-10-9-10--7-10-9-10------------------10------------------10-------------|
E|---------------------------------------------------------------------------|

e|---------------------------------------------------------------------------|
B|---------------------------------------------------------------------------|
G|---------------------------------------------------------------------------|
D|---------------------------------------------------------------------------|
A|--9-----9------9-----9----10-10-10-10-9--9--9--9-10-10-10-10-12-12-12-12---|
E|----10----10----10----10---------------------------------------------------|

Verse 1:
e|---------------------------------------------------------------------------|
B|---------------------------------------------------------------------------|
G|--10--------5--------------------------------------------------------------|
D|--10-(x16)--5-(x16)--5--------9--------10----------------------------------|
A|--8---------3--------5-(X16)--9-(x16)--10----------------------------------|
E|---------------------3--------7--------8-----------------------------------|

Chorus:
e|---------------------------------------------------------------------------|
B|---------------------------------------------------------------------------|
G|--10--------5--------------------------------------------------------------|
D|--10-(x16)--5-(x16)--5--------9--------------------------------------------|
A|--8---------3--------5-(X16)--9-(x16)--------------------------------------|
E|---------------------3--------7--------------------------------------------|

e|---------------------------------------------------------------------------|
B|---------------------------------------------------------------------------|
G|--10--------5--------------------------------------------------------------|
D|--10-(x16)--5-(x16)--5----------9--9--9--9---9----9------9--9--9--9---9--9-|
A|--8---------3--------5-(X16)----9--9--9--9---9----9------9--9--9--9---9--9-|
E|---------------------3----------7--7--7--7---7----7------7--7--7--7---7--7-|

Verse 2:
e|---------------------------------------------------------------------------|
B|---------------------------------------------------------------------------|
G|---------------------------------------------------------------------------|
D|--10-(x16)--5-(x16)--------------------10----------------------------------|
A|--8---------3--------5-(X16)--9-(x16)--10----------------------------------|
E|---------------------3--------7--------8-----------------------------------|
    *         *        *        *

Chorus:
e|---------------------------------------------------------------------------|
B|---------------------------------------------------------------------------|
G|--10--------5--------------------------------------------------------------|
D|--10-(x16)--5-(x16)--5--------9--------------------------------------------|
A|--8---------3--------5-(X16)--9-(x16)--------------------------------------|
E|---------------------3--------7--------------------------------------------|

e|---------------------------------------------------------------------------|
B|---------------------------------------------------------------------------|
G|--10--------5--------------------------------------------------------------|
D|--10-(x16)--5-(x16)--5----------9--9--9--9---9----9------9--9--9--9---9--9-|
A|--8---------3--------5-(X16)----9--9--9--9---9----9------9--9--9--9---9--9-|
E|---------------------3----------7--7--7--7---7----7------7--7--7--7---7--7-|

e|---------------------------------------------------------------------------|
B|---------------------------------------------------------------------------|
G|---------------------------------------------------------------------------|
D|--9--9--9--9---9----9------9--9--9--9---9--9-------------------------------|
A|--9--9--9--9---9----9------9--9--9--9---9--9-------------------------------|
E|--7--7--7--7---7----7------7--7--7--7---7--7-------------------------------|

I haven't figured out the solo yet, sorry. 

Repeat the chorus one final time and that's it :)


************************************

| *   Palm Mute
| /   slide up
| \   slide down
| h   hammer-on
| p   pull-off
| ~   vibrato
| +   harmonic
| x   Mute note
| b   Bend
| pb  Pre-bend
| br  Bend release
| pbr Pre-bend release
| brb Bend release bend
Tap to rate this tab
 
# A B C D E F G H I J K L M N O P Q R S T U V W X Y Z