Song name
# A B C D E F G H I J K L M N O P Q R S T U V W X Y Z

Short Stack - In This Place chords

Highlighted       Show chord diagrams
-------------------------------------------------------------------------------
			     In This Place - Short Stack
-------------------------------------------------------------------------------
Tabbed by: thanksgiving
Email: billiejoearmstrong456@hotmail.com

Tuning: Standard

Chords Used

    Em     D     C     A7    Em*   D*    C*   B/C*
e|---0-----0-----0-----0-----0-----0-----0-----0----------------------------|
B|---0-----3-----1-----0-----0-----0-----0-----0----------------------------|
G|---0-----2-----0-----2-----9-----7-----5-----4----------------------------|
D|---2-----0-----2-----2-----9-----7-----5-----5----------------------------|
A|---2-----0-----3-----0-----7-----5-----3-----2----------------------------|
E|---0-----X-----X-----X-----0-----X-----X-----X----------------------------|


Verse:

Em
In this place we lie

                        D
Cutting slightly in vain

                                          C
Hoping and praying you'll remember my name

                                A7
If only tonight, And only tonight

                                     Em
You'll write back here I swear I'm done

                                   D
Take your advice cos its easy to see

                                    C
This so called romance never wanted me

                                 A7
If only tonight, And maybe tonight


You write back here, I swear I'll

Em        D        C
Cut, till crimson falls

          A7
Over the bedroom walls

            Em      D        C
So will you lay me down tonight

             Em     D     C
And we'll be better off today

Em*   D*   C*   B/C* C*



Em                                     D
Between you and I it's the 2-step I crave

                                 C
Morbidly swaying to a dying refrain

                                 A7
If only tonight, and maybe tonight
You write back here
(I'm so sincere)
            

            Em      D        C
So will you lay me down tonight

             Em     D     C
And we'll be better off today

             Em    D           C
And I would die if you never got to know

              Em     D          C
But would it do more harm this way?


And we'll go

Bridge

Em*  D*  C*   B/C* C*
Em*  D*  C*   B/C* C*
Em*  D*  C*   B/C* C*

            Em      D       C
So will you lay me down tonight

             Em     D     C
And we'll be better off today

             Em    D           C
And I would die if you never got to know

              Em     D          C
But would it do more harm this way?

End on Em
Tap to rate this tab
 
# A B C D E F G H I J K L M N O P Q R S T U V W X Y Z