Song name
# A B C D E F G H I J K L M N O P Q R S T U V W X Y Z

Short Stack - Princess tab

---------------------------------------------------------------------------
			     Princess – Short Stack
---------------------------------------------------------------------------
Tabbed by: Joshyy >=)
Tuning:EBGDAE

This is my first tab that I’ve made so I hope you like it, I’m confident that this is 
accurate. Please send any feedback that you have to happyhooker9@hotmail.com =D thanks

Verse
e|------------------------------------------------------------------------|
B|------------------------------------------------------------------------|
G|-88888888—-1010101010101010---------------------------------------------|
D|-66666666--8-8-8-8-8-8-8-8--1010101010101010-888888888------------------|
A|----------------------------8-8-8-8-8-8-8-8--666666666------------------|
E|------------------------------------------------------------------------|

Main Riff
e|--------66-------------66-----------------------------------------------|
B|------------------------------------------------------------------------|
G|--887788--887788-887788--887788-----------------------------------------|
D|------------------------------------------------------------------------|
A|------------------------------------------------------------------------|
E|------------------------------------------------------------------------|

Verse
e|------------------------------------------------------------------------|
B|------------------------------------------------------------------------|
G|-88888888—-1010101010101010---------------------------------------------|
D|-66666666--8-8-8-8-8-8-8-8--1010101010101010-888888888------------------|
A|----------------------------8-8-8-8-8-8-8-8--666666666------------------|
E|------------------------------------------------------------------------|

Main Riff
e|--------66-------------6\-----------------------------------------------|
B|------------------------------------------------------------------------|
G|--887788--887788-887788-------------------------------------------------|
D|------------------------------------------------------------------------|
A|------------------------------------------------------------------------|
E|------------------------------------------------------------------------|

Chorus
e|-------------------------------------------66---------------------------|
B|------------------------------------------------------------------------|
G|--8--------10------------------------887788--887788---------------------|
D|--8-(x16)--10-(x16)-10------8-------------------------------------------|
A|--6--------8--------10-(x8)-8-(x9)--------------------------------------|
E|--------------------8-------6-------------------------------------------|

e|------------------------------------------------------------------------|
B|------------------------------------------------------------------------|
G|--8--------10-----------------------------------------------------------|
D|--8-(x16)--10-(x16)-10------8-------------------------------------------|
A|--6--------8--------10-(x8)-8-(x9)--------------------------------------|
E|--------------------8-------6-------------------------------------------|

Solo #1
e|------------------------------------------------------------------------|
B|------------------------------------------------------------------------|
G|--88--88--88--88-1010--1010--1010--1010----8--8--10-10--88-1010-1212-10\|
D|----66--66--66-------88----88----88----1010-10-88--8---6----------------|
A|------------------------------------------------------------------------|
E|------------------------------------------------------------------------|

Verse
e|------------------------------------------------------------------------|
B|-----------------------------------------------------------66-----------|
G|-88888888—-1010101010101010--------------------------887788—88778~------|
D|-66666666--8-8-8-8-8-8-8-8--10101010-88888------------------------------|
A|----------------------------8-8-8-8--66666------------------------------|
E|-------------------------------------------6-8-6-8-6--------------------|

e|------------------------------------------------------------------------|
B|------------8866------------------------------66-----------------8866---|
G|-887788 1010----88---8-10-----8-10------887788—887788-887788 1010----88-|
D|---------------------6-8-10-8-6-8-10-8----------------------------------|
A|-------------------------8--6-----8--6----------------------------------|
E|------------------------------------------------------------------------|

e|------------------------------------------------------------------------|
B|------------------------------------------------------------------------|
G|------------------------------------------------------------------------|
D|-0----------0----------0------------------------------------------------|
A|-0---HEY!---0---HEY!---0---HEY!-----------------------------------------|
E|-0----------0----------0------------------------------------------------|
  P.M.     P.M.     P.M.

Chorus
e|-------------------------------------------66---------------------------|
B|------------------------------------------------------------------------|
G|--8--------10------------------------887788--887788---------------------|
D|--8-(x16)--10-(x16)-10------8-------------------------------------------|
A|--6--------8--------10-(x8)-8-(x9)--------------------------------------|
E|--------------------8-------6-------------------------------------------|

e|------------------------------------------------------------------------|
B|-------------------------------------------66---------------------------|
G|--8--------10------------------------887788--887788---------------------|
D|--8-(x16)--10-(x16)-10------8-------------------------------------------|
A|--6--------8--------10-(x8)-8-(x9)--------------------------------------|
E|--------------------8-------6-------------------------------------------|

Solo #2
e|------------------------------------------------------------------------|
B|------------------------------------------------------------------------|
G|-88--88--88--88-1010--1010--1010--1010----8--8--10-10--88-1010-1212-1010|
D|---66--66--66-------88----88----88----1010-10-88--8---6-----------------|
A|------------------------------------------------------------------------|
E|------------------------------------------------------------------------|

e|----------66--66--66--66------------------------------------------------|
B|---------------------------66--66--66--66-------------------------------|
G|-88-10-12---88--88--88-------------------------8--8--10-10--88-1010-1212|
D|-----------------------------88--88--88----1010-10-88--8---6------------|
A|------------------------------------------------------------------------|
E|------------------------------------------------------------------------|

e|------------------------------------------------------------------------|
B|------------------------------------------------------------------------|
G|-1010-88-10-12-8~-------------------------------------------------------|
D|------------------------------------------------------------------------|
A|------------------------------------------------------------------------|
E|------------------------------------------------------------------------|

Verse
e|-------66-----------------------------------66--------------------------|
B|------------------------------------------------------------------------|
G|-887788--887788-----------------------887788--887788--------------------|
D|------------------10-10-10---8-8-8--------------------------------------|
A|------------------10-10-10---8-8-8--------------------------------------|
E|------------------8--8--8----6-6-6--------------------------------------|


Chorus
e|-------------------------------------------66---------------------------|
B|------------------------------------------------------------------------|
G|--8--------10------------------------887788--887788---------------------|
D|--8-(x16)--10-(x16)-10------8-------------------------------------------|
A|--6--------8--------10-(x8)-8-(x9)--------------------------------------|
E|--------------------8-------6-------------------------------------------|

e|------------------------------------------------------------------------|
B|-------------------------------------------66---------------------------|
G|--8--------10------------------------887788--887788---------------------|
D|--8-(x16)--10-(x16)-10------8-------------------------------------------|
A|--6--------8--------10-(x8)-8-(x9)--------------------------------------|
E|--------------------8-------6-------------------------------------------|

Solo Ending
e|------------------------------------------------------------------------|
B|------------------------------------------------------------------------|
G|-88--88--88--88-1010--1010--1010--1010----8--8--10-10--88-1010-1212-1010|
D|---66--66--66-------88----88----88----1010-10-88--8---6-----------------|
A|------------------------------------------------------------------------|
E|------------------------------------------------------------------------|

e|----------66--66--66--66------------------------------------------------|
B|---------------------------66--66--66--66-------------------------------|
G|-88-10-12---88--88--88-------------------------8--8--10-10--------------|
D|-----------------------------88--88--88----1010-10-88--8---6~-----------|
A|------------------------------------------------------------------------|
E|------------------------------------------------------------------------|


************************************

| /   slide up
| \   slide down
| ~   vibrato
| x   Mute note
| P.M. Palm Muted
Tap to rate this tab
 
# A B C D E F G H I J K L M N O P Q R S T U V W X Y Z