Song name
# A B C D E F G H I J K L M N O P Q R S T U V W X Y Z

Shotgun Messiah - Overkill tab

#----------------------------------PLEASE NOTE--------------------------------#
#This file is the author's own work and represents their interpretation of the#
#song. You may only use this file for private study, scholarship, or research.#
#-----------------------------------------------------------------------------#


Artist: Shotgun Messiah
Song: Overkill
Album: Violent New Breed (1993)

Tabbed by: Rod Z. 
E-mail: rodzombie_89@hotmail.com

I can't believe that no one tabbed songs from this album!
Im going to take the work. So here's my first atempt:
Overkill, one of the best songs from this great album


Tuning: Standard


Intro Riff and Chorus:
|-------------------------------------------|
|-------------6/9\6-------------------------|
|-7-7-5-5-----------------------------------|
|-7-7-5-5-x-x-3/6\3-x-x---------------------|
|-5-5-3-3-x-x-------x-x-3-3-5-5-3-3-x-x-x-x-|
|---------x-x-------x-x-1-1-3-3-1-1-x-x-x-x-|

|-------------------------------------------|
|-------------6/9\6-------------------------|
|-7-7-5-5-----------------------------------|
|-7-7-5-5-x-x-3/6\3-x-x---------------------|
|-5-5-3-3-x-x-------x-x-x-x-x-x-xxxxxxxx----|
|---------x-x-------x-x-x-x-x-x-xxxxxxxx----|


Verse riff:

|-----------|---------------|
|-----------|---------------|
|-----------|---------------|
I-5---5/7-7-|-5---5/7-7--10-|
|-3---3/5-5-|-3---3/5-5--8--|
|-----------|---------------|

Interlude:
|----------------------------|
|----------------------------|
|---------------------5---2--|
|-2--xxxxxx-2--xxxxxx-5---2-|
|-2--xxxxxx-2--xxxxxx-3---0--|
|-0--xxxxxx-0--xxxxxx--------|


These are all the riffs played through the whole song. Enjoy!

Tap to rate this tab
 
# A B C D E F G H I J K L M N O P Q R S T U V W X Y Z