Song name
# A B C D E F G H I J K L M N O P Q R S T U V W X Y Z

Shout Out Louds - Walls tab

Shout Out Louds  Walls 


You just know it theres a wall and just ran through it,

you had too much to drink and all those telephone bills but its worth it. 

           e|-----5-|
Victoria   B|-3-5---|   knew I would end up in Victoria, 

I took to many pills and wrote my will just to get to you (ya),     so GO 

e|--2-2-0-0--5--2-0-0--0-2-2-----2-2-0-0--5--2-0-0-0-0-2-------\ ---|
B|-------------------------------------------------------5-3-0-/ x2-|
G|------------------------------------------------------------------|
D|------------------------------------------------------------------|
A|------------------------------------------------------------------|
E|------------------------------------------------------------------|

Ahaha          Ahaha      

D
I need a pencil piece of paper lock and a cage, 
D
feels so much better now getting rid my rage 
D
im suspicious so suspicious cant get my mind straight 
D
I just see them when I sleep nowadays so sleep now    and GO 

e|--2-2-0-0--5--2-0-0--0-2-2-----2-2-0-0--5--2-0-0-0-0-2-------\ ---|
B|-------------------------------------------------------5-3-0-/ x2-|
G|------------------------------------------------------------------|
D|------------------------------------------------------------------|
A|------------------------------------------------------------------|
E|------------------------------------------------------------------|

D                                 G                               D       
Its so new being the one building all the roads 
D              G                               D
cant wait to crack all of your codes
D                      G                           D
learn to ally, allies know how they love 
        D                         G                                                D
and show you how it looks up there but it looks like a bug.       So So   SoGo. 

e|--2-2-0-0--5--2-0-0--0-2-2-----2-2-0-0--5--2-0-0-0-0-2-------\ ---|
B|-------------------------------------------------------5-3-0-/ x2-|
G|------------------------------------------------------------------|
D|------------------------------------------------------------------|
A|------------------------------------------------------------------|
E|------------------------------------------------------------------|

D
Whatever they say were the ones buildings walls 
D
whatever they say were the ones who never say no, 
G
to get to know yourself you gotta run away
G
never trust anyone so runway runrunrunrunrun 

e|--2-2-0-0--5--2-0-0--0-2-2-----2-2-0-0--5--2-0-0-0-0-2-------\ ---|
B|-------------------------------------------------------5-3-0-/ x2-|keep
G|------------------------------------------------------------------|playing
D|------------------------------------------------------------------|
A|------------------------------------------------------------------|
E|------------------------------------------------------------------|



D
Whatever they say were the ones buildings walls 
D
whatever they say were the ones who never say no, 
G
to get to know yourself you gotta run away
G
never trust anyone so runway runrunrunrunrun 

D
Whatever they say were the ones buildings walls 
D
whatever they say were the ones who never say no, 
G
to get to know yourself you gotta run away
G                                         D~
never trust anyone so runway runrunrunrunrun 

Tap to rate this tab
 
# A B C D E F G H I J K L M N O P Q R S T U V W X Y Z