Song name
# A B C D E F G H I J K L M N O P Q R S T U V W X Y Z

Shwayze - Shotgun tab

Tabbed by: Topher2552
Email: Topher2552@yahoo.com
Tuning: Standard

I'll try and work out the fills later. any suggestions, Email! Enjoy!


Intro/Chorus.
e|------------------------------------------------------------|
B|-------3----------1---------0-----------0h1p0---------------|
G|-----0---0------0---0-----0---0------0----------------------|
D|-----------------------------------0------------------------|
A|------------2-----------3-----------------------------------|
E|--3---------------------------------------------------------|


e|------------------------------------------------------------|
B|-------3----------1---------0-----------1p0-----------------|
G|-----0---0------0---0-----0---0------0----------------------|
D|-----------------------------------0------------------------|
A|------------2-----------3-----------------------------------|
E|--3---------------------------------------------------------|

e|------------------------------------------------------------|
B|-------3----------1---------0-----------0h1-----------------|
G|-----0---0------0---0-----0---0------0----------------------|
D|-----------------------------------0------------------------|
A|------------2-----------3-----------------------------------|
E|--3---------------------------------------------------------|

e|------------------------0---|
B|-------3----------1-----1---|
G|-----0---0------0---0---0---|
D|------------------------2---|
A|------------2-----------3---|
E|--3-------------------------|


Verse:
e|------------------------------------------------------------|
B|-------3----------1---------0-----------0h1p0---------------|
G|-----0---0------0---0-----0---0------0----------------------|
D|-----------------------------------0------------------------|
A|------------2-----------3-----------------------------------|
E|--3---------------------------------------------------------|


e|------------------------------------------------------------|
B|-------3----------1---------0-----------1p0-----------------|
G|-----0---0------0---0-----0---0------0----------------------|
D|-----------------------------------0------------------------|
A|------------2-----------3-----------------------------------|
E|--3---------------------------------------------------------|

e|------------------------------------------------------------|
B|-------3----------1---------0-----------0h1p0---------------|
G|-----0---0------0---0-----0---0------0----------------------|
D|-----------------------------------0------------------------|
A|------------2-----------3-----------------------------------|
E|--3---------------------------------------------------------|

e|------------------------------------------------------------|
B|-------3----------1---------0-----------1p0-----------------|
G|-----0---0------0---0-----0---0------0----------------------|
D|-----------------------------------0------------------------|
A|------------2-----------3-----------------------------------|
E|--3---------------------------------------------------------|

e|------------------------------------------------------------|
B|-------3----------1---------0-----------0h1p0---------------|
G|-----0---0------0---0-----0---0------0----------------------|
D|-----------------------------------0------------------------|
A|------------2-----------3-----------------------------------|
E|--3---------------------------------------------------------|

e|------------------------0---|
B|-------3----------1-----1---|
G|-----0---0------0---0---0---|
D|------------------------2---|
A|------------2-----------3---|
E|--3-------------------------|

.Play Chorus 1x

.Play Verse  1x

Bridge
e|-------------------------------------------------------|
B|-------0-------3-------1-------------------------------|
G|-----0---0---0---0---0---0-----0-----0-----------------|
D|-------------------------------------------------------| 
A|-----------3-------2-------3------2--------------------|x3
E|---3-----------------------------------3---------------|

e|------------------------0---|
B|-------3----------1-----1---|
G|-----0---0------0---0---0---|
D|------------------------2---|
A|------------2-----------3---|
E|--3-------------------------|

Post-bridge instrumental thingy.
e|------------------------------------------------------------|
B|-------3----------1---------0-----------0h1p0---------------|
G|-----0---0------0---0-----0---0------0----------------------|
D|-----------------------------------0------------------------|
A|------------2-----------3-----------------------------------|
E|--3---------------------------------------------------------|

e|------------------------0---|
B|-------3----------1-----1---|
G|-----0---0------0---0---0---|
D|------------------------2---|
A|------------2-----------3---|
E|--3-------------------------|

Chorus/outro
e|------------------------------------------------------------|
B|-------3----------1---------0-----------0h1p0---------------|
G|-----0---0------0---0-----0---0------0----------------------|
D|-----------------------------------0------------------------|
A|------------2-----------3-----------------------------------|
E|--3---------------------------------------------------------|


e|------------------------------------------------------------|
B|-------3----------1---------0-----------1p0-----------------|
G|-----0---0------0---0-----0---0------0----------------------|
D|-----------------------------------0------------------------|
A|------------2-----------3-----------------------------------|
E|--3---------------------------------------------------------|

e|------------------------------------------------------------|
B|-------3----------1---------0-----------0h1-----------------|
G|-----0---0------0---0-----0---0------0----------------------|
D|-----------------------------------0------------------------|
A|------------2-----------3-----------------------------------|
E|--3---------------------------------------------------------|x2


e|------------------------0---|
B|-------3----------1-----1---|
G|-----0---0------0---0---0---|
D|------------------------2---|
A|------------2-----------3---|
E|--3-------------------------|


| /  slide up
| \  slide down
| h  hammer-on
| p  pull-off
| ~  vibrato
| +  harmonic
| x  Mute note
Tap to rate this tab
 
# A B C D E F G H I J K L M N O P Q R S T U V W X Y Z