Guitaretab - guitar tabs
Song name
# A B C D E F G H I J K L M N O P Q R S T U V W X Y Z

Siakol - Ituloy Mo Lang tab

Song Title: Ituloy mo Lang
Song Artist: Siakol

Tabber: Dave Ubana
Email Address: hdu_dave1231@yahoo.com
Facebook Account Link : http://www.facebook.com/profile.php?id=1410800710
Location: Daet, Camarines Norte Bicol Region
School: La Consolacion College of Daet/Camarines Norte State College

-------------------------------------------------------------------------


Intro:

Guitar 1 - Clean

          A              F#m          E
e|-------------------|----------|----------|
B|-------------------|---2-0-2--|---0------|
G|---2s4s6-7-6-4h6-2-|--2-2---2-|--1-1-2-1-| x2
D|--2----------------|----------|----------|
A|-0-----------------|----------|----------|
E|-------------------|-2--------|-0--------|

then

Guitar 1 - Distorted
(strum this)

e|------------|
B|------------|
G|------------| x2
D|-7--4--9--7-|
A|-7--4--9--7-|
E|-5--2--7--5-|

Guitar 2 - Distorted
(listen to the timing)
e|---------------------|
B|---------------------|
G|-------------9-67--7-|
D|-7-67--4-67--9-xx--7-|
A|-7-77--4-xx--7-44--5-|
E|-5-55--2-44----------|


Verse:

Guitar 1 - Clean

   A F#m E  D
e|-0--2--0--2-|
B|-2--2--0--3-|
G|-2--2--1--2-| x2
D|-2--4--2--0-|
A|-0--4--2--x-|
E|-x--2--0--x-|

Guitar 2 - Distorted
(will came in in verse every time chord E is strummed by Guitar 1)
( "{}" means you can do it before refrain comes)

   E  D
e|----------|
B|----------|
G|-9--7{s6}-|
D|-9--7{sx}-|
A|-7--5{s4}-|
E|----------|


Refrain :

Guitar 1 and 2 - Distorted
(can be only played only by guitar 2, if distortion is a problem for guitar 1)

e|------------|
B|------------|
G|-4-9-s7-4-9-|
D|-4-9-s7-4-9-|
A|-2-7-s5-2-7-|
E|------------|

Bass Guitar :
(just listen to the song :D)

      Bm        E
G|-----------|-----|
D|---4-4s6-4-|-----|
A|--4--------|-----|
E|-2---------|-2s7-|
B|-----------|-----|

------> (then Repeat Verse)
-------> (Repeat Refrain)


Chorus:
[ Tab from: http://www.guitaretab.com/s/siakol/284026.html ]
Guitar 1 and 2 - Distorted

e|------------|
B|------------|
G|------------| x2
D|-7--4--9--7-|
A|-7--4--9--7-|
E|-5--2--7--5-|

------> (then Repeat intro that is distorted only 1 time)
-------> (Repeat Refrain)
--------> (Repeat Chorus)

then

Adlib:
Guitar 2:
(while Guitar 1 is doing the chords A,F#m,E,D two times)

e|-----------------------------------------------------------|
B|---s10--10h12-14-15-14--12-10----10h12-14-15-14--12-12-----|
G|-s9---------------------------------------------------9----|
D|-----------------------------------------------------------|
A|-----------------------------------------------------------|
E|-----------------------------------------------------------|

e|-------------------------------------------------------------------------------------------|
B|---------------------------------s10-10h12-14-15-14-15s17-15-14---12-14-15-14-12-12--14s17-|
G|-9-9-9--7-7-7------------------s9----------------------------------------------------------|
D|---------------11-11-11--9-9-7-------------------------------------------------------------|
A|-------------------------------------------------------------------------------------------|
E|-------------------------------------------------------------------------------------------|

e|-------------------------------------------|
B|-171717-151515-14-14--12-12--10p9-10s12-12-|
G|-------------------------------------------|
D|-------------------------------------------|
A|-------------------------------------------|
E|-------------------------------------------|


then

------> (Repeat Refrain)
-------> (Repeat Chorus two times)


then Guitar 1 - Clean
(strum chords A,F#m,E,D two times and you're done :D)



[if you like it please rate :D]
[tell me when u find problem :)]
----> note : you can play it with one lead guitar and a bass guitar,
if lead guitar have a gadget to swith from clean to distortion or vice versa..
Related for Ituloy Mo Lang tab