Guitaretab - guitar tabs
Song name
# A B C D E F G H I J K L M N O P Q R S T U V W X Y Z

Sick Of Sarah - Hardest Part tab

-------------------------------------------------------------------------------
			     Hardest Part - Sick of Sarah
-------------------------------------------------------------------------------
Tabbed by: Cheyanne Diffee
Email: greyonslaught@yahoo.com

Tuning: standard

please go to www.myspace.com/SickofSarah, www.youtube.com/user/SickofSarah, or 
www.adamantrecords.com


e|---------------------------------------------------------------------------|
B|---------------------------------------------------------------------------|
G|-7-------------------------7-----------------------------------------------|                    
D|-7--5--7--9-9-9-9-7-7-7----7--5--7-----------------------------------------|
A|-5--5--7--9-9-9-9-7-7-7----5--5--7-----------------------------------------|
E|----3--5--7-7-7-7-5-5-5-------3--5-----------------------------------------| 
this is for the intro and verses...


chorus, 1st guitar:
e|---------------------------------------------------------------------------|
B|---------------------------------------------------------------------------|
G|---------------------------------------------------------------------------|
D|-------------------------------4-4--2-2------------------------------------|
A|------------2-2--5-5--0-0--4-4--------------------2-2--5-5---0-------------|
E|--3-3--5-5-------------------------------3-3--5-5--------------------------|
[ Tab from: http://www.guitaretab.com/s/sick-of-sarah/180380.html ]
chorus, 2nd guitar:
e|---------------------------------------------------------------------------|
B|---------------------------------------------------------------------------|
G|---------------------------------------------------------------------------|
D|---------------------------------------------------------------------------|
A|---5-5--5-5----7-7--7-7------5-5--5-5--7-----------------------------------|
E|---3-3--3-3----5-5--5-5------3-3--3-3--5-----------------------------------|

e|---------------------------------------------------------------------------|
B|-----------------------------------------------------12---10---------------|
G|--------------x-7---------------------------/11---9------------------------|
D|--------------x-7----------------------------------------------------------|
A|---6/7--6/7---x-5------------------------------------------------5-5--7-7--|
E|---4/5--4/5---x-5------------------------------------------------3-3--5-5--|


solo-y part during the chorus:
e|------------------------12p10-12p10-12p10-12p10---------------------14-12--|
B|12p10-12p10-12p10-12p10-----------------------12p10-12p10-12p10-12p10------|
G|---------------------------------------------------------------------------|
D|---------------------------------------------------------------------------|
A|---------------------------------------------------------------------------|
E|---------------------------------------------------------------------------|


| /  slide up
| \  slide down
| h  hammer-on
| p  pull-off
| ~  vibrato
| +  harmonic
| x  Mute note
===============================================================================
Related for Hardest Part tab
Hardest Part chords by Sick Of Sarah