Song name
# A B C D E F G H I J K L M N O P Q R S T U V W X Y Z

Sick Of Sarah - Wasting Time tab

Title: Wasting Time
Artist: Sick of Sarah

Tuning: Standard

Capo 2

Intro
e|---3-------3-------3-------3---3---|
B|---3-------3-------3-------3---3---|
G|---0-------0-------0-------0---0---|
D|---0-------0-------0-------0---0---|   x4
A|---2-------3-------0-------2---0---|
E|-----------------------------------|

Verse ("so you're wasting all your time...")
e|---3-------3-------3-------3---3---|
B|---3-------3-------3-------3---3---|
G|---0-------0-------0-------0---0---|
D|---0-------0-------0-------0---0---|   x4
A|---2-------3-------0-------2---0---|
E|-----------------------------------|

Prechorus ("and it takes a bit of a strong kind...")
e|---0-------0-------0-------0---|
B|---1-------3-------1-------3---|
G|---0-------0-------0-------0---|
D|---2-------4-------2-------4---|
A|---3-------5-------3-------5---|
E|-------------------------------|

Chorus ("this is the story, we've made it...")
e|---3-------3-------3-------3---|
B|---3-------3-------3-------3---|
G|---0-------0-------0-------0---|
D|---0-------0-------0-------0---|   x4
A|---2-------3-------0-------2---|
E|-------------------------------|

Verse ("so we're wasting all your time...")
e|---3-------3-------3-------3---3---|
B|---3-------3-------3-------3---3---|
G|---0-------0-------0-------0---0---|
D|---0-------0-------0-------0---0---|   x8
A|---2-------3-------0-------2---0---|
E|-----------------------------------|

Prechorus ("and it takes a bit of a strong kind...")
e|---0-------0-------0-------0---|
B|---1-------3-------1-------3---|
G|---0-------0-------0-------0---|
D|---2-------4-------2-------4---|
A|---3-------5-------3-------5---|
E|-------------------------------|

Chorus ("this is the story, we've made it...")
e|---3-------3-------3-------3---|
B|---3-------3-------3-------3---|
G|---0-------0-------0-------0---|
D|---0-------0-------0-------0---|   x4
A|---2-------3-------0-------2---|
E|-------------------------------|

Bridge ("and it takes a lot to make you move...")
e|---0-------0-------0-------0---|
B|---1-------3-------1-------3---|
G|---0-------0-------0-------0---|
D|---2-------4-------2-------4---|   x2
A|---3-------5-------3-------5---|
E|-------------------------------|

Chorus ("this is the story, we've made it...")
e|---3-------3-------3-------3---|
B|---3-------3-------3-------3---|
G|---0-------0-------0-------0---|
D|---0-------0-------0-------0---|   x8
A|---2-------3-------0-------2---|
E|-------------------------------|

e|---3---|
B|---3---|
G|---0---|
D|---0---|
A|---2---|
E|-------|
Tap to rate this tab
 
# A B C D E F G H I J K L M N O P Q R S T U V W X Y Z