Song name
# A B C D E F G H I J K L M N O P Q R S T U V W X Y Z

Sid - Uso tab

Song : Uso
Band : sid
part: solo

standard tuning

by: E man (...)
a while back i had spent ages trying to find tabs for this solo part , and 
obviously i didnt find any so, after working it all out by ear i decided to 
post it onto the internet for all those that want to learn this part =]]]]
* also its my first time writing a tab, so there maybe a few mistakes somewhere =P
 
e |10--9--10--9--------------------------------------||
b |--------------10-------------------7-------10--7--||
g |------------------11---------7--9-----------------||
d |--------------------------9-----------------------||
a |--------------------------------------------------||
e |--------------------------------------------------||

e |-------------------------------7--9--10---||
b |---------7--8--7-----7--8--10-------------||
g |---7--9-----------9-----------------------|| This part has to played in 2 
d |9-----------------------------------------|| seconds >.<
a |------------------------------------------||
e |------------------------------------------||

e |10--10--10--9--9--9--7--6-------------||
b |---------------------------7h8--7-----||
g |--------------------------------------||
d |--------------------------------------||
a |--------------------------------------||
e |--------------------------------------||

e |------------9--10--12-------10--9--10-9--------||
b |---5--7--8-------------------------------10--7-||
g |7----------------------------------------------||
d |-----------------------------------------------||
a |-----------------------------------------------||
e |-----------------------------------------------||

e |--------------------------------10------10--12--14--14--14---||
b |---------7--10-----------7--10------10-----------------------||
g |---7--9------------7--9--------------------------------------||
d |9---------------9--------------------------------------------||
a |-------------------------------------------------------------||
e |-------------------------------------------------------------||

e |14--14--12--10--9--10--9--7------------------||
b |---------------------------------------------||
g |---------------------------------------------||
d |---------------------------------------------||
a |---------------------------------------------||
e |---------------------------------------------||


Tap to rate this tab
 
# A B C D E F G H I J K L M N O P Q R S T U V W X Y Z