Song name
# A B C D E F G H I J K L M N O P Q R S T U V W X Y Z

Sid - Rain tab

The only thing missing here is 
verse 2 and the guitar solo (:.
Because Idk them and couldn't figure them out,
if you know them please tell me (:.
Id be veeery happy !! :D And also ...
Please don't hate ^-^ . *please*
Gosh this took me ages to tab it on here T^T .
Oh about the strumming, its basically up and down (:
if you do it downwards all the time
its pretty difficult and it makes no sense x] 
(Im talking about the chorus) .This my first btw
(: .. hopefully its good >.< .

intro
e------0----------|------0----------|------0----------|-----------------|
b-----0--4-0------|-----0--4-0------|-----0--4--------|-----------------|
g-----------------|-----------------|-----------------|-----------------|
d-----------------|-----------------|-----------------|-----------------|
a----4------------|----4------------|----4------------|-----------------|
e-----------------|-----------------|-----------------|----0h1/---------|

intro's riff
e-----------------|------------7----|-----------------|------------7----|
b-99-88-------7---|-99-88-----7-7---|-99-88-------7---|-99-88-----7-7---|
g-------6/99-8-9--|-------6/9-----99|-------6/99-8-9--|-------6/9-------|
d-----------------|-----------------|-----------------|-----------------|
a-----------------|-----------------|-----------------|-----------------|
e-----------------|-----------------|-----------------|-----------------|

intro's riff
e-----7-2-7-4-~~--|
b-----------------|
g-99--------------|
d---9-------------|
a-----------------|
e-----------------|

Verse 1
e------0----------|------0----------|------0----------|------0----------|
b-----0--4-0------|-----0--0-4------|-----0--4-0------|-----0--4-0------|
g-----------------|-----------------|-----------------|-----------------|
d-----------------|-----------------|-----------------|-----------------|
a----4------------|----0------------|----2------------|----4------------|
e-----------------|-----------------|-----------------|-----------------|

Verse 1
e------0---0------|------0---0------|------0---0------|-----------------|
b-----0--4--------|-----0--4--------|-----0--4--------|-----04----------|
g-----------------|-----------------|-----------------|-----------------|
d-----------------|-----------------|-----------------|-----------------|
a----4------------|----0------------|----2------------|---4-------------|
e-----------------|-----------------|-----------------|-----------------|

Verse 1
e------0----------|------0----------|------0----------|------0----------|
b-----0--4-0------|-----0--0-4------|-----0--4-0------|-----0--4-0------|
g-----------------|-----------------|-----------------|-----------------|
d-----------------|-----------------|-----------------|-----------------|
a----4------------|----0------------|----2------------|-----------------|
e-----------------|-----------------|-----------------|----4------------|

Verse 1
e------0---0------|------0---0------|------0----------|-----------------|
b-----0--4--------|-----0--4--------|-----0-----------|-----04----------|
g-----------------|-----------------|-----------------|-----------------|
d-----------------|-----------------|-----------------|-----------------|
a----0------------|----2------------|----0------------|-----------------|
e-----------------|-----------------|-----------------|----4------------|

e----4~-----------|
b----5~-----------|
g----6~-----------|
d----6~-----------|
a----4~-----------|
e----4~-----------|

(As I said earlier no verse 2 T^T )

Pre Chorus (ATTENTION!! it can be this ...)
e----4------------|----7------------|----9------------|----11-----------|
b----4------------|----7------------|----11-----------|----11-----------|
g----4------------|----7------------|----11-----------|----11-----------|
d----6------------|----9------------|----9------------|----13-----------|
a----6------------|----9------------|----9------------|----13-----------|
e----4------------|----7------------|----9------------|----11-----------|

Pre Chorus (OR it can be that)
e----2------------|----5------------|----7------------|----9------------|
b----2------------|----5------------|----7------------|----9------------|
g----2------------|----5------------|----7------------|----9------------|
d----4------------|----7------------|----9------------|----11-----------|
a----4------------|----7------------|----9------------|----11-----------|
e----2------------|----5------------|----7------------|----9------------|

Chorus
e----5xx55555-----|----4xx44444-----|----4444xx4444xx-|----4444---------|
b----5xx55555-----|----4xx44444-----|----4444xx4444xx-|----4444---------|
g----5xx55555-----|----4xx44444-----|----6666xx6666xx-|----6666---------|
d----7xx77777-----|----6xx66666-----|----6666xx6666xx-|----6666---------|
a----7xx77777-----|----6xx66666-----|----4444xx4444xx-|----4444---------|
e----5xx55555-----|----4xx44444-----|----4444xx4444xx-|----4444---------|

Chorus
e----5xx55555-----|----4xx44444-----|----4444xx4444xx-|----4444---------|
b----5xx55555-----|----4xx44444-----|----4444xx4444xx-|----4444---------|
g----5xx55555-----|----4xx44444-----|----6666xx6666xx-|----6666---------|
d----7xx77777-----|----6xx66666-----|----6666xx6666xx-|----6666---------|
a----7xx77777-----|----6xx66666-----|----4444xx4444xx-|----4444---------|
e----5xx55555-----|----4xx44444-----|----4444xx4444xx-|----4444---------|

Chorus
e----5xx55555-----|----4xx44444-----|----4444xx4444xx-|----4444---------|
b----5xx55555-----|----4xx44444-----|----4444xx4444xx-|----4444---------|
g----5xx55555-----|----4xx44444-----|----6666xx6666xx-|----6666---------|
d----7xx77777-----|----6xx66666-----|----6666xx6666xx-|----6666---------|
a----7xx77777-----|----6xx66666-----|----4444xx4444xx-|----4444---------|
e----5xx55555-----|----4xx44444-----|----4444xx4444xx-|----4444---------|

Chorus
e----55555555-----|----4444-x-xx----|----4~-----------|
b----55555555-----|----4444-x-xx----|----4~-----------|
g----55555555-----|----4444-x-xx----|----6~-----------|
d----77777777-----|----6666-x-xx----|----6~-----------|
a----77777777-----|----6666-x-xx----|----4~-----------|
e----55555555-----|----4444-x-xx----|----4~-----------|

Verse 3 (chords ;) )
e----4-------2------|------4----4-4-|-------4-4----2--|-----4-4---22222-|
b----4---2---3------|---2--4--2-4-4-|----2--4-4--2-3--|-2---4-4-2~33333-|
g----6---2---4---1--|---2--4--2-4-6-|----2--4-6--2-4-1|-2---4-6-2~44444-|
d----6---2---4---2--|---2--6--2-6-6-|----2--6-6--2-4-2|-2---6-6-2~44444-|
a----4-------2---2--|------6----6-4-|-------6-4----2-2|-----6-4---22222-|
e----4-------2------|------4----4-4-|-------4-4----2--|-----4-4---22222-|

Pre Chorus
e----xxxx---------|
b----xxxx---------|
g----xxxx---------|
d----xxxx---------|
a----xxxx---------|
e----xxxx---------|

Chorus (and yes there are 3 of these so (: )
e----5xx55555-----|----4xx44444-----|----4444xx4444xx-|----4444---------|
b----5xx55555-----|----4xx44444-----|----4444xx4444xx-|----4444---------|
g----5xx55555-----|----4xx44444-----|----6666xx6666xx-|----6666---------|
d----7xx77777-----|----6xx66666-----|----6666xx6666xx-|----6666---------|
a----7xx77777-----|----6xx66666-----|----4444xx4444xx-|----4444---------|
e----5xx55555-----|----4xx44444-----|----4444xx4444xx-|----4444---------|

e----5xx55555-----|----4xx44444-----|----4444xx4444xx-|----4444---------|
b----5xx55555-----|----4xx44444-----|----4444xx4444xx-|----4444---------|
g----5xx55555-----|----4xx44444-----|----6666xx6666xx-|----6666---------|
d----7xx77777-----|----6xx66666-----|----6666xx6666xx-|----6666---------|
a----7xx77777-----|----6xx66666-----|----4444xx4444xx-|----4444---------|
e----5xx55555-----|----4xx44444-----|----4444xx4444xx-|----4444---------|

e----5xx55555-----|----4xx44444-----|----4444xx4444xx-|----4444---------|
b----5xx55555-----|----4xx44444-----|----4444xx4444xx-|----4444---------|
g----5xx55555-----|----4xx44444-----|----6666xx6666xx-|----6666---------|
d----7xx77777-----|----6xx66666-----|----6666xx6666xx-|----6666---------|
a----7xx77777-----|----6xx66666-----|----4444xx4444xx-|----4444---------|
e----5xx55555-----|----4xx44444-----|----4444xx4444xx-|----4444---------|

Chorus
e----5555555/7----|----4444---------|
b----5555555/7----|----4444---------|
g----5555555/7----|----4444---------|
d----7777777/9----|----6666---------|
a----7777777/9----|----6666---------|
e----5555555/7----|----4444---------|

(ATTENTION!! Again the solo i do not have but if you do then pleaseeeeeeee (: let me knoww !)

Singer's solo .his names Mao (^_^)
e------0----------|------0----------|------0----------|----4444~--------|
b-----0--4-0------|-----0--0-4------|-----0--4-0------|----4444~--------|
g-----------------|-----------------|-----------------|----6666~--------|
d-----------------|-----------------|-----------------|----6666~--------|
a----4------------|----0------------|----2------------|----4444~--------|
e-----------------|-----------------|-----------------|----4444~--------|

End Chorus
e----5xx55555-----|----4xx44444-----|----4444xx4444xx-|----4444---------|
b----5xx55555-----|----4xx44444-----|----4444xx4444xx-|----4444---------|
g----5xx55555-----|----4xx44444-----|----6666xx6666xx-|----6666---------|
d----7xx77777-----|----6xx66666-----|----6666xx6666xx-|----6666---------|
a----7xx77777-----|----6xx66666-----|----4444xx4444xx-|----4444---------|
e----5xx55555-----|----4xx44444-----|----4444xx4444xx-|----4444---------|

End Chorus
e----222----------|----44444--------|----555----------|----2~-22xx------|
b----222----------|----44444--------|----555----------|----2~-22xx------|
g----222----------|----44444--------|----555----------|----4~-44xx------|
d----444----------|----66666--------|----777----------|----4~-44xx------|
a----444----------|----66666--------|----777----------|----2~-22xx------|
e----222----------|----44444--------|----555----------|----2~-22xx------|

End Chorus
e----5xx55555-----|----4xx44444-----|----4444xx4444xx-|----4444---------|
b----5xx55555-----|----4xx44444-----|----4444xx4444xx-|----4444---------|
g----5xx55555-----|----4xx44444-----|----6666xx6666xx-|----6666---------|
d----7xx77777-----|----6xx66666-----|----6666xx6666xx-|----6666---------|
a----7xx77777-----|----6xx66666-----|----4444xx4444xx-|----4444---------|
e----5xx55555-----|----4xx44444-----|----4444xx4444xx-|----4444---------|
End chorus
e----2xxx2xxx-----|----2xxx2xxx-----|----4xxx4xxx-----|----4xxx4xxx-----|
b----2xxx2xxx-----|----2xxx2xxx-----|----4xxx4xxx-----|----4xxx4xxx-----|
g----2xxx2xxx-----|----4xxx4xxx-----|----4xxx4xxx-----|----6xxx6xxx-----|
d----4xxx4xxx-----|----4xxx4xxx-----|----6xxx6xxx-----|----6xxx6xxx-----|
a----4xxx4xxx-----|----2xxx2xxx-----|----6xxx6xxx-----|----4xxx4xxx-----|
e----2xxx2xxx-----|----2xxx2xxx-----|----4xxx4xxx-----|----4xxx4xxx-----|

End Chorus
e----5xx55555-----|----4xx44444-----|----4444xx4444xx-|----4444---------|
b----5xx55555-----|----4xx44444-----|----4444xx4444xx-|----4444---------|
g----5xx55555-----|----4xx44444-----|----6666xx6666xx-|----6666---------|
d----7xx77777-----|----6xx66666-----|----6666xx6666xx-|----6666---------|
a----7xx77777-----|----6xx66666-----|----4444xx4444xx-|----4444---------|
e----5xx55555-----|----4xx44444-----|----4444xx4444xx-|----4444---------|

End Chorus
e----222----------|----44444--------|----555----------|----22222-5x-----|
b----222----------|----44444--------|----555----------|----22222-5x-----|
g----222----------|----44444--------|----555----------|----44444-5x-----|
d----444----------|----66666--------|----777----------|----44444-7x-----|
a----444----------|----66666--------|----777----------|----22222-7x-----|
e----222----------|----44444--------|----555----------|----22222-5x-----|

intro's riff but at the end
e-----------------|------------7----|-----------------|------------7----|
b-99-88-------7---|-99-88-----7-7---|-99-88-------7---|-99-88-----7-7---|
g-------6/99-8-9--|-------6/9-----99|-------6/99-8-9--|-------6/9-------|
d-----------------|-----------------|-----------------|-----------------|
a-----------------|-----------------|-----------------|-----------------|
e-----------------|-----------------|-----------------|-----------------|

intro's riff but at the end
e-----7-2-7-4-~~--|
b-----------------|
g-99--------------|
d---9-------------|
a-----------------|
e-----------------|

Yay !Done !! (: If i made mistakes please tll me (: ty !
And wow its long ^^ I didnt want you to scroll to the chorus T^T
Plus its different.
Tap to rate this tab
 
# A B C D E F G H I J K L M N O P Q R S T U V W X Y Z