Song name
# A B C D E F G H I J K L M N O P Q R S T U V W X Y Z

Siege - Conform tab

Siege - Conform

Tabbed by: Kapteeni Haddoc

Tuning: E standard

Riff 1
e-------------------------------|
B-------------------------------|
G-----------------------5-5-4-4-|
D-8--8-3-4--4-3-6--6-4--5-5-4-4-|
A-8--8-3-4--4-3-6--6-4--3-3-2-2-|
E-6--6-1-2--2-1-4--4-2----------|

Riff 2
e--------------|
B--------------|
G--------6666--|
D--66-33-6666--|
A--66-33-4444--|
E--44-11-------|

Riff 3
e--------------|
B--------------|
G--------------|
D--88-55-6666--|
A--88-55-6666--|
E--66-33-4444--|

Riff 4
e-----------|
B-----------|
G-----------|
D--5-5-5-6--|
A--5-5-5-6--|
Eľ-3-3-3-4--|

Riff 5
e----------------------|
B----------------------|
G-----------------5-4--|
D--8888-5555-6666-5-4--|
A--8888-5555-6666-3-2--|
Eľ-6666-3333-4444------|

Ending
e-----|
B-----|
G-----|
D--9--|
A--9--|
Eľ-7--|
Tap to rate this tab
 
# A B C D E F G H I J K L M N O P Q R S T U V W X Y Z