Song name
# A B C D E F G H I J K L M N O P Q R S T U V W X Y Z

Silent Sanctuary - 14 tab

Band: Silent Sanctuary
Title: 14
Album: Fuschiang Pag-Ibig
Tabbed & Chords By: Adrian Masion & Reden Vargas


Adrian friendster: adrian_719@yahoo.com
Reden friendster: reden_21493@yahoo.com

  Hi guyz!! 2nd time ko na poh 2 pero may tumulong naakong gumawa nito
  si REDEN! POGI! KONOHAY! wala kasi akong magawa sa bahay, kaya ginawa ko na lang 2, 
part
  2 ng kantang 14 sa Silent Sanctuary ewan ko ba kung bakit 14 ang title basta 
nyu
  na lang poh, and 100% me sure jan sa tabb favorite band ko kasi sila eh hehehe...
  & kung may problem kau sa tab q leave comment na lang poh
  at kung di pa kayu kontento add me na lang poh sa friendster un lang poh...


                 G
E:|---------------------------------------|
B:|---------------------------------------|
G:|------------12----------------12-------|
D:|-9--10--12-----12--10--9--10-----------|
A:|---------------------------------------|
E:|---------------------------------------|

                 D
E:|----------------------------------------|
B:|----------------------------------------|
G:|----------------------------------------|
D:|12--10--9--10--9------------------------|
A:|------------------10--------------------|
E:|----------------------------------------|


                Em

E:|----------------------------------------|
B:|----------------------------------------|
G:|----------------------------------------|
D:|-------------------12-------------------|
A:|--------10--12h--14----14--12--10-------|
E:|-10--12---------------------------------|

                D
E:|----------------------------------------|
B:|----------------------------------------|
G:|----------------------------------------|
D:|----------------------------------------|
A:|-12--14--12--10----------------10-------|
E:|----------------10h--12--10--12---------|


                G
E:|----------------------------------------|
B:|----------------------------------------|
G:|---------12--14--16--14--13--12---------|
D:|-12--14---------------------------------|
A:|----------------------------------------|
E:|----------------------------------------|


                D
E:|----------------------------------------|
B:|-17--15--13--12--13--12-----------------|
G:|-------------------------12--13---------|
D:|----------------------------------------|
A:|----------------------------------------|
E:|----------------------------------------|


                Em
E:|-12--12--12--12--12--12-----------------|
B:|----------------------------------------|
G:|----------------------------------------|
D:|----------------------------------------|
A:|----------------------------------------|
E:|----------------------------------------|


                D
E:|-15--15--17--17--15--17--17h--19--------|
B:|----------------------------------------|
G:|----------------------------------------|
D:|----------------------------------------|
A:|----------------------------------------|
E:|----------------------------------------|


  |)
  |\EDEN :Para sa SILENT SANCTUARY FANS poh ito!!! Binabati ko rin poh
   ang mga tao na nakatira sa Summerlight Polomolok South Cotabato!!! Especially Raymund 
mon2x MAGBAGO KA NA!!!
   "Kahit hindi nyu maintindihan ang tab na2 wag nalng poh ninyong sirain  kc ginawa lng 
ang dapat/tama"

     W     A     R     N    I     N     G    !     !     !

    P L E A S E   R A T E OUR TAB!!!!!!!!! God BLEsS 2 all......
Tap to rate this tab
 
# A B C D E F G H I J K L M N O P Q R S T U V W X Y Z