Song name
# A B C D E F G H I J K L M N O P Q R S T U V W X Y Z

Silent Sanctuary - Rebound tab

Rebound
Silent Sanctuary



(Intro)

   Repeat 2X
e---------------------------------------------------|
B---------------------------------------------------|
G---------------------------------------------------|
D--6h7-6---7/9-7-6---------6h7-6---7/9/11--9-7-6----| 
A--------7---------9-7---9-------7----------------7-|
E---------------------------------------------------|




     o kay bilis naman     Nagsawa ng puso mo
e---------------------------------------------|
B------------------------------------------2--|
G---2--------1-----------2--------1-----------|
D---2--------2-----------2--------2--------4--|
A------------------------------------------4--|
E------------------------------------------2--|


     Ganyan ka ba Talaga Bigla na lng naglalaho  
e---------------------------------------------|
B------------------------------------------2--|
G---2--------1-----------2--------1-----------|
D---2--------2-----------2--------2--------4--|
A------------------------------------------4--|
E------------------------------------------2--|



    Bm              C#m       Bm           D    E 
Para bang Walang nangyari Di mo man lng sinabi

(Chorus)

   Sanay hindi na lng pinilit pa  
e----------------------------------|
B-----------------------------2----|
G---2--------1---------------------|
D---2--------2----------------4----|
A-----------------------------4----|
E-----------------------------2----|


             D     E
Wala ring Patutunguhan


   Kahit Sabihin ko pang Mahal kita
e----------------------------------|
B------------------------------2---|
G---2----------------1-------------|
D---2----------------2---------4---|
A------------------------------4---|
E------------------------------2---|

Repeat lng sa chorus..

(Bridge)

F#m   G#m  A.....  F#m  G#m E.....

F#m   G#m  A    D   Dm
                   Rebound mo lng pala ako.......





(Intro)

   Repeat 2X
e---------------------------------------------------|
B---------------------------------------------------|
G---------------------------------------------------|
D--6h7-6---7/9-7-6---------6h7-6---7/9/11--9-7-6----| 
A--------7---------9-7---9-------7----------------7-|
E---------------------------------------------------|




     o kay bilis naman     Nagsawa ng puso mo
e---------------------------------------------|
B------------------------------------------2--|
G---2--------1-----------2--------1-----------|
D---2--------2-----------2--------2--------4--|
A------------------------------------------4--|
E------------------------------------------2--|


     Ganyan ka ba Talaga Bigla na lng naglalaho  
e---------------------------------------------|
B------------------------------------------2--|
G---2--------1-----------2--------1-----------|
D---2--------2-----------2--------2--------4--|
A------------------------------------------4--|
E------------------------------------------2--|



    Bm              C#m       Bm           D    E 
Para bang Walang nangyari Di mo man lng sinabi

(Chorus)

   Sanay hindi na lng pinilit pa  
e----------------------------------|
B-----------------------------2----|
G---2--------1---------------------|
D---2--------2----------------4----|
A-----------------------------4----|
E-----------------------------2----|


             D     E
Wala ring Patutunguhan


   Kahit Sabihin ko pang Mahal kita
e----------------------------------|
B------------------------------2---|
G---2----------------1-------------|
D---2----------------2---------4---|
A------------------------------4---|
E------------------------------2---|

Repeat lng sa chorus..

(Bridge)

F#m   G#m  A.....  F#m  G#m E.....

F#m   G#m  A    D   Dm
                   Rebound mo lng pala ako.......


Rebound Lyrics:

Verse 1:
O kay bilis namang
Magsawa ng puso mo
Ganyan ka ba talaga
Bigla na lang naglalaho

Pre-Chorus 1:
Para bang walang nangyari
Di' mo man lang sinabi...

Chorus: 
Sana hindi na lang pinilit pa
Wala ring patutunguhan
Kahit sabihin mo pang
Mahal kita
Nalulungkot, nayayamot, nagmumukmok
Hindi ko pa yata kaya pang
Labanan ang damdamin ko

Verse 2: 
Nakakainis talaga
Nag-mukha tuloy akong tanga
Pinaasa mo kasi
Puso ko ngayon tuloy lumuluha

Pre-Chorus 2:
Dahil iniwan mo 'kong mag-isa
Limang araw lang ay babay na

Repeat Chorus:

Bridge 1:
Rebound mo lang pala ako

Bridge 2:
Sana hindi na lang pinilit pa
Wala ring patutunguhan 
Kahit sabihin mo pang
Mahal kita...


Repeat Chorus x2

Tap to rate this tab
# A B C D E F G H I J K L M N O P Q R S T U V W X Y Z