Song name
# A B C D E F G H I J K L M N O P Q R S T U V W X Y Z

Silverchair - Low tab

-------------------------------------------------------------------------------
			     LOW - Silverchair
-------------------------------------------------------------------------------
Tabbed by: chapman li (aka SonicYouthRles)
Email:chapman_li@hotmail.com




Somebody else had made a good tab of the chords, here's the intro riif


Tuning: Standard


e|--12b(14)~----12b(14)b12-10--12b(14)-------------------------------------|
B|-------------------------------------------------------------------------|
G|-------------------------------------------------------------------------|
D|-------------------------------------------------------------------------|
A|-------------------------------------------------------------------------|
E|-------------------------------------------------------------------------|

e|--12b(14)---12b(14)12--10--9~--------------------------------------------|
B|-------------------------------------------------------------------------|
G|-------------------------------------------------------------------------|
D|-------------------------------------------------------------------------|
A|-------------------------------------------------------------------------|
E|-------------------------------------------------------------------------|

e|--14-12b(14)12--(10)9--------12--10~-------------------------------------|
B|----------------pb-r----12h14--------------------------------------------|
G|-------------------------------------------------------------------------|
D|-------------------------------------------------------------------------|
A|-------------------------------------------------------------------------|
E|-------------------------------------------------------------------------|

e|--10-9-7-9~---9-7-5-4~---------------------------------------------------|
B|-------------------------------------------------------------------------|
G|-------------------------------------------------------------------------|
D|-------------------------------------------------------------------------|
A|-------------------------------------------------------------------------|
E|-------------------------------------------------------------------------|


btw, pb is a pre-bend. r is release bend. b is a normal bend. any questions just ask


| \  slide down
| h  hammer-on
| p  pull-off
| ~  vibrato
| +  harmonic
| x  Mute note
===============================================================================
Tap to rate this tab
# A B C D E F G H I J K L M N O P Q R S T U V W X Y Z