Song name
# A B C D E F G H I J K L M N O P Q R S T U V W X Y Z

Silverchair - Israels Son tab

Song: israels son
Band: silverchair
Tabbed by: Tom Guest
coments: I love this song so much and ive noticed that every tab on here is shit so 
what i think, enjoy

Drop D tunning

into:

e:-----------------------------------------------| wat u do is just place ur finger
b:-----------------------------------------------| over the first fret but DO NOT
g:-----------------------------------------------| push down and then strum the dead
d:-xxxx(1)-------xxxx(1)--------xxxx(1)----3-----| notes as hard as u can.
a:-xxxx(1)-------xxxx(1)--------xxxx(1)----3-----|
d:-xxxx(1)-------xxxx(1)--------xxxx(1)----3-----|

verse's:

e:----------------------|
b:----------------------|
g:----------------------|
d:-0-0------------------|
a:-0-0-3--3b~~~5-3/5----|
d:-0-0-3h5-----5--------|

chorus:

(part 1)                  (Part 2)
e:-------------[         ]-------------[ in third and final chorus play
b:-------------[         ]-------------[ (part 2)3 times.
g:-------------[ x3 then ]-------------[
d:-00-53--0-23-[         ]-1111/6666---[
a:-00-53--0-23-[         ]-1111/6666---[
d:-00-53--0-23-[         ]-1111/6666---[

bridge 1:

in the bridge Dan plays a harmonic/feedback solo sort of thing, with a good
amp and load of distortion (witch u slould be playing with anyway) u should
be able to make a similar affect.

fill or connection between bridge and 3rd chorus:

e:----------|
b:----------|
g:----------|
d:-3--2--1--|
a:-3--2--1--|
d:-3--2--1--|

bridge 2:

e:---------------------------[
b:---------------------------[
g:---------------------------[u can figure out wen
d:-xx(1)-53------------------[do it but he chucks
a:-xx(1)-53-------3b~~~~-----[in this every now
d:-xx(1)-53--0h3h5-------5---[and then.

e:---------------------------[
b:---------------------------[
g:---------------------------[
d:-xx(1)-53------------------[
a:-xx(1)-53-------2b~~~~0----[
d:-xx(1)-53--0h3h5-----------[

bridge 3: (in this bridge the tempo doubles)

e:-----------------------------[
b:-----------------------------[
g:-----------------------------[
d:-00-53-----------------------[
a:-00-53------3b~~~~-----------[
d:-00-53-0h3h5-------5---------[

and thats it!, simple but by far the best grunge song ever written, enjoy!
Tap to rate this tab
# A B C D E F G H I J K L M N O P Q R S T U V W X Y Z