Song name
# A B C D E F G H I J K L M N O P Q R S T U V W X Y Z

Silverchair - Waiting All Day tab

Silverchair- Waiting All Day
Young Modern
Tabbed by Steve Rose

Standard Tuning- Capo 1st fret

Main Guitar Intro/Verse/Solo 
|-0-----0-----3-----3--------2------2b-----2b----------------------------|
|-0------0----0-------0------0----0-----0--------------------------------|
|-0-------0---0--------0-----2--2----------------------------------------|
|-2--2--------0--0-----------1-------------------------------------------|
|-2-----------2--------------2-------------------------------------------|
|-0-----------3----------------------------------------------------------|
 I took advantage, of a straight believing town  
 He's been beaten, might have bought it on himself

Pre-Chorus
|-0--0-0--3--3-3--0--0-0--0~---------------------------------------------|
|-0--0-0--0--0-0--1--1-1--1~---------------------------------------------|
|-0--0-0--0--0-0--2--2-2--0~---------------------------------------------|
|-2--2-2--0--0-0--2--2-2--2~---------------------------------------------|
|-2--2-2--2--2-2--0--0-0--3~---------------------------------------------|
|-0--0-0--3--3-3---------------------------------------------------------|
 Are you listening or are you faithless like the others?
 But alls not lost in this tangle like no other

Chorus 1 x4                       Chorus 2 x1
|-3--3-3--2--2-2--0--0-0--2--2-2-|-0~------2---2-------------------------|
|-0--0-0--1--1-1--0--0-0--3--3-3-|-1~------3---1-------------------------|
|-0--0-0--0--0-0--0--0-0--2--2-2-|-0~------2---2-------------------------|
|-0--0-0--2--2-2--2--2-2--0--0-0-|-2~------0---0-------------------------|
|-2--2-2--0--0-0--2--2-2---------|-0~------------------------------------|
|-3--3-3----------0--0-0---------|---------------------------------------|
 Long days are almost here         For you...its true
 I've been waiting all day
 I've been waiting all year

Bridge
|--2~--------2--2-2----7~------3--3-3---2----2-2-2-2-2-2-----------------|
|--3~--------2--2-2----8~------3--3-3---3----3-3-3-3-3-3-----------------|
|--4~--------3--3-3----9~------4--4-4---2----2-2-2-2-2-2-----------------|
|--4~--------4--4-4----9~------5--5-5---0----0-0-0-0-0-0-----------------|
|--2~--------4--4-4----7~------5--5-5------------------------------------|
|------------2--2-2----0~------3--3-3------------------------------------|
 Take this dose and go, whiskey warm september
 The faded signs will show, that he still remembers

Intro/Verse x4
Pre-chorus x1
Chorus 1 x4
Chorus 2 x1
Intro/Verse x2
Pre-chorus x1
Chorus 1 x4
Chorus 2 x1
Bridge x2
Intro/Verse/Solo x2
Chorus 1 x4
Chorus 2 x1
Chorus 1/Outro x4





Tap to rate this tab
 
# A B C D E F G H I J K L M N O P Q R S T U V W X Y Z