Song name
# A B C D E F G H I J K L M N O P Q R S T U V W X Y Z

Silversun Pickups - Future Foe Scenarios tab

song      : future foe scenarios
artist    : silversun pickups
tabbed by : oneshotnothing


standard tuning
listen for timing


these are just some of the basic riffs in the song.
fool around with it, you can almost play the whole
song with this.


verse riff 1 - clean

e--|-------------------------------------------------------------------------------|
b--|-------------------------------------------------------------------------------|
g--|----7---7------5---5-------------------------7---7------5---5------------------|
a--|-------------------------7---7-----5---5--------------------------7---7---5----|
d--|--7---------7----------7---------7---------7---------7----------7--------------|
E--|0---------0----------0---------0---------0---------0----------0---------0------|

chorus - later in the song these chords are strummed instead of picked

e--|--------------------------------------------------------------------------------|
b--|----0---------0---------0-------------------0---------0---------0---------------|
g--|--------------------------------0---------------------------------------0-------|
d--|--5-----5---5-----5---5-----5-------7-----5-----5---5-----5---5-----5-------7---|
a--|3---------3---------3---------5-------0-3---------3---------3---------5-------0-|
E--|--------------------------------------------------------------------------------|

verse riff 2 - distorted

e--|---------------------------------------------------|
b--|---------------------------------------------------|
g--|--------------------5---5------------------------5-|
d--|-------5---5---------------------5---5-----5-------|
a--|7-5-7--------7-5-7--------7-5-7--------5-7----7----|
E--|---------------------------------------------------|

part near the end - (maybe these chords aren't right,
                     but it's something like this... )

e--|--------------------           |--------------------|
b--|----8---8-----8---8-           |----8---8-----8---8-|
g--|----7---7-----7---7-           |----7---7-----7---7-|
d--|----x---x-----x---x-    X4     |----x---x-----x---x-|    X4
a--|----7---7-----7---7-           |----7---7-----7---7-|
E--|0-0-------0-0-------           |8-8-------8-8-------|


e--|--------------------           |--------------------|
b--|----8---8-----8---8-           |----8---8-----8---8-|
g--|----7---7-----7---7-           |----7---7-----7---7-|
d--|----x---x-----x---x-    X4     |----x---x-----x---x-|    X4
a--|----7---7-----7---7-           |----7---7-----7---7-|
E--|0-0-------0-0-------           |8-8-------8-8-------|


e--|----------------------------|
b--|------10---10-------10---10-|
g--|------11---11-------11---11-|
d--|------12---12-------12---12-|     X4
a--|----------------------------|
E--|10-10---------10-10---------|


e--|--------------------------|
b--|----8----8--------8----8--|
g--|----9----9--------9----9--|
d--|----10---10-------10---10-|     X4
a--|--------------------------|
E--|8-8---------10-10---------|

ending

e--|-----------------------------------------------|
b--|-----------------------------------------------|
g--|----------------------5----------------------5-|
d--|-------5---5-----------------5---5-----5-------|
a--|7-5-7--------7-5-7--------7--------5-7----7----|
E--|-----------------------------------------------|
Tap to rate this tab
# A B C D E F G H I J K L M N O P Q R S T U V W X Y Z