Guitaretab - guitar tabs
Song name
# A B C D E F G H I J K L M N O P Q R S T U V W X Y Z

Simple Plan - Shut Up tab

 


Guitar 1
e|-------------------------------------------------------------------------|
B|--4-4-|--6-7-7-6-7-7-6-7-7-6-7-7-7-6-------6-7-7-6-7-7-6-7-7-6-7-7-7-6---|
G|------|-----------------------------8-6------------------------------8-8-|
D|------|------------------------------------------------------------------|
A|-------------------------------------------------------------------------|
E|-------------------------------------------------------------------------|

Guitar 2
e|-----|-------------------------|
B|-----|-------------------------|
G|-----|-66666666----------------|
D|--66-|-66666666-66-44444444-66-|x2
A|--66-|-44444444-66-44444444-66-|
E|--44-|----------44-22222222-44-|

verse1
e|-------------------------------------------|
B|-------------------------------------------|
G|----66666666-------------------------------|
D|----66666666--44444444-66666666--44444444--|x2
A|----44444444--44444444-66666666--44444444--|
E|--------------22222222-88888888--22222222--|
  ....................palm mute...............


pre-chorus
e|---------------------------------------------------|
B|---------------------------------------------------|
G|--66xxx-------------------66xxx-----------6~-------|
D|--66xxx-66xxx-44xxx-66xxx-66xxx-66xxx-4-6-6~-------|
A|--44xxx-66xxx-44xxx-66xxx-44xxx-66xxx-4-6-4~-------|
E|--------44xxx-22xxx-44xxx-------44xxx-2-4----------|

chorus
Guitar2
e|---------------------------------------------------------------|
B|---------------------------------------------------------------|
G|----6----------------------------6-----------------------------|
D|----6------66---8--------4--6----6--------66---8------4--6-----|
A|----4--x12-66---8--------4--6----4--x12---66---8------4--6-----|
E|-----------44---6-x12----2--4-------------44---6-x12--2--4-----|

Guitar1
e|-------------------------------------------------------------------------|
B|--6-7-7-6-7-7-6-7-7-6-7-7-7-6-------6-7-7-6-7-7-6-7-7-6-7-7-7-6----------|
G|--------------------------------8-6-------------------------------8-8----|
D|-------------------------------------------------------------------------|
A|-------------------------------------------------------------------------|
E|-------------------------------------------------------------------------|

verse 2
e|-------------------------------------------|
B|-------------------------------------------|
G|----66666666-------------------------------|
D|----66666666--44444444-66666666--44444444--|x2
A|----44444444--44444444-66666666--44444444--|
E|--------------22222222-88888888--22222222--|
  ....................palm mute...............


pre-chorus
e|---------------------------------------------------|
B|---------------------------------------------------|
G|--66xxx-------------------66xxx-----------6~-------|
D|--66xxx-66xxx-44xxx-66xxx-66xxx-66xxx-4-6-6~-------|
A|--44xxx-66xxx-44xxx-66xxx-44xxx-66xxx-4-6-4~-------|
E|--------44xxx-22xxx-44xxx-------44xxx-2-4----------|
[ Tab from: http://www.guitaretab.com/s/simple-plan/133310.html ]
                            chorus
Guitar2
e|---------------------------------------------------------------|
B|---------------------------------------------------------------|
G|----6----------------------------6-----------------------------|
D|----6------66---8--------4--6----6--------66---8------4--6-----|
A|----4--x12-66---8--------4--6----4--x12---66---8------4--6-----|
E|-----------44---6-x12----2--4-------------44---6-x12--2--4-----|

Guitar1
e|-------------------------------------------------------------------------|
B|--6-7-7-6-7-7-6-7-7-6-7-7-7-6-------6-7-7-6-7-7-6-7-7-6-7-7-7-6----------|
G|--------------------------------8-6-------------------------------8-8----|
D|-------------------------------------------------------------------------|
A|-------------------------------------------------------------------------|
E|-------------------------------------------------------------------------|

bridge (played on bass)
e|-----------------------------------------------|
B|-----------------------------------------------|
G|------6-------6--------------------------------|
D|----6---6---6---6------------------------------|play until chorus
A|--4--------------------------------------------|
E|----------4------------------------------------|

chorus
Guitar2
e|---------------------------------------------------------------|
B|---------------------------------------------------------------|
G|----6----------------------------6-----------------------------|
D|----6------66---8--------4--6----6--------66---8------4--6-----|
A|----4--x12-66---8--------4--6----4--x12---66---8------4--6-----|
E|-----------44---6-x12----2--4-------------44---6-x12--2--4-----|

Guitar1
e|-------------------------------------------------------------------------|
B|--6-7-7-6-7-7-6-7-7-6-7-7-7-6-------6-7-7-6-7-7-6-7-7-6-7-7-7-6----------|
G|--------------------------------8-6-------------------------------8-8----|
D|-------------------------------------------------------------------------|
A|-------------------------------------------------------------------------|
E|-------------------------------------------------------------------------|

e|-------------------------------------------------------------------------|
B|--6-7-7-6-7-7-6-7-7-6-7-7-7-6-------6-7-7-6-7-7-6-7-7-6-7-7-7-6----------|
G|--------------------------------8-6-------------------------------8-8----|
D|-------------------------------------------------------------------------|
A|-------------------------------------------------------------------------|
E|-------------------------------------------------------------------------|

                       end on...
e|-------------------------------------------------------------------------|
B|-------------------------------------------------------------------------|
G|-------------------------------------------------------------------------|
D|----66--66--66-----------------------------------------------------------|
A|----44--44--44-----------------------------------------------------------|
E|-------------------------------------------------------------------------|
Related for Shut Up tab
Advertisement will be closed in 10 seconds