Song name
# A B C D E F G H I J K L M N O P Q R S T U V W X Y Z

Simple Plan - Untitled tab

Help us improve GuitareTab! Take a short survey!
Simple plan
Untitled
Tabbed:krIMsONline

Legend: h- hammer
        d-drag
        x-dead note

Hi! Im Edwin Cabatuan(lead) im using krIMsONline's acct for the support of
uploading my tabs from Simple plan's Untitled.. ive based this from their
concert.. at that time they were using a guitar instead of a piano and im
sure that this tab is almost 100% correct! we both ear-transcribed the song
until we finally got it.. please do rate! thank you! :D


Intro: Guitar 1
 
           E
  e--------------------| __
  b--------------------|   | 
  g--------------1-----|   |
  d------2---4---------|    - (4x)
  a----2---2---2---2---|   |
  E--0-----------------| __|

Verse:

          C#
  e---------------------| __
  b--------------5------|   |
  g------6---8------6---|   |
  d----6---6---6--------|    - (2x) ____
  a--4------------------|   |           |
  E---------------------| __|           |
                                        |
           E                            |
  e--------------------| __              -- (2x)
  b--------------------|   |            |
  g--------------1-----|   |            |
  d------2---4---------|    - (2x) _____|
  a----2---2---2---2---|   |
  E--0-----------------| __|

           B
  e----------------------|
  b-------------4--------|
  g-----4---6-------4----|
  d---4---4---4-------4--|
  a--2------------2------|
  E----------------------|

Refrain:

            A                         B
  e-----------------------||-----------------------|
  b-----------------------||-----------------------|
  g------------------6----||----------------8------|
  d---7---7----9---7---7--||-----9---11---9---9----|
  a-----7---7----7--------||---9---9----9----------|
  E--5--------5-----------||-7---------7-----------|
  
          C#                        E 
  e----------------------||------------------|
  b-------------------5--||------------------|
  g----6---6---8---6-----||---9---9----------|
  d------6-------6-------||-----9------------|
  a--4-------4--4----0---||-7----------------|
  E----------------------||------------------|

           E                       A                 B
  e----------------------||---------------------||-------| 
  b------------9---------||---------------------||-------|
  g---11---9-----9-------||---------------------||-------|
  d------9---9-----9-----||----7---7-----9---7--||----9--|
  a--7-------------------||------7---7----------||-------|
  E----------------------||--5---------5---5----||--7----|

Chorus: Guitar 1 and 2
(pluck again E C# A B(2x)
  e----------------------| ___
  b----------------------|    |
  g--9-9--6-6--6-6--9-8--|    |
  d--0-0--0-0--0-0--0-0--|     - (2X)
  a--7-7--4-4--5-5--7-7--|    |
  E----------------------| ___|


play again the intro and the verse)

(last part of refrain)
           E                A                      B
  e-----------------||-------------------||--------------------|
  b---9--9--9-------||-------------------||--------------------|
  g-----------9-----||-------------------||---------------8----|
  d------------9----||---7---7---7----7--||----9-----11--------|
  a--7--7--7--------||-----7---7---7-----||------9------9------|
  E-----------------||--5------------5---||--7-----7--------7--|

(Back to chorus)

 (adlib) Guitar 1

      A    B     C#         A    B 
   e--x-x--x-x--x--x--x--x---x-x--x---|
   b--x-x--x-x--x--x--x--x---x-x--x---|
   g--x-x--x-x--x--x--x--x---x-x--x---|
   d--7-7--9-9--11-11-11-11--7-7--9---|
   a--7-7--9-9--11-11-11-11--7-7--9---|
   E--5-5--7-7--9--9--9--9---5-5--7---|

Guitar 2

  e------------------------------------------------------------------|
  b------------------------------7d9-----------9d10-9----------------|
  g----------------------------6---------9d11--9------9------9d11----|
  d---7------6-------------6-9-------8h9----------------9h11---------|
  a---7--7h9---9-7-7h9-7h9-------------------------------------------|
  E--d5--------------------------------------------------------------|

(back to chorus)

(end:)  
  e-----------------------|
  b-----------------------|
  g--11---9--8--8h9-------|
  d-----------------------|
  a-----------------------|
  E-----------------------|

and that's that! pls add me in friendster.. edwin_naruto_fave@yahoo.com
thank you! sikat ang pinoy! utru pud ang mga bisaya.. awh.. :D
Related for Untitled tab