Song name
# A B C D E F G H I J K L M N O P Q R S T U V W X Y Z

Siouxsie And The Banshees - Happy House tab

Artist: Siouxsie And The Banshees
  song: Happy House

Chords used:

        EADGBe
A7sus4 (x75755)
C7sus4 (8,10,8,10,8,8)
     B (x244xx)
     C (x355xx)
     D (x577xx)

   p : pull (this is only for an instant before the following note)
  (5): harmonic notes in brackets


(pattern 1 - intro)
   
e|---12p0--14p0--12p0--14p0-12p0-14p0--15p0--12p0--15p0--12p0-15p0-12p0--|
B|-----------------------------------------------------------------------|
G|-----------------------------------------------------------------------|
D|-----------------------------------------------------------------------|
A|-----------------------------------------------------------------------|
E|-----------------------------------------------------------------------|

e|---15p0--14p0--15p0--14p0-15p0-14p0--14p0--12p0--14p0--12p0-14p0-12p0--|
B|-----------------------------------------------------------------------|
G|-----------------------------------------------------------------------|
D|-----------------------------------------------------------------------|
A|-----------------------------------------------------------------------|
E|-----------------------------------------------------------------------|

(pattern 2)
   
e|--------5------------8------------8------------------------------------|
B|-------5-5----------8-8----------8-8-----------------------------------|
G|-----7-----------10-----------10-------4-4-4-44-555-7------------------|
D|---5-----------8------------8----------4-4-4-44-555-7------------------|
A|-7----------10-------------------------2-2-2-22-333-5------------------|
E|--------------------------8--------------------------------------------|

(pattern 3 - harmonics)

e|-(5)-------------------------------------------------------------------|
B|----------(5)-------------------(7)-------(9)--------------------------|
G|-------------------(5)---------------(9)-------------------------------|
D|-----------------------------------------------------------------------|
A|-----------------------------------------------------------------------|
E|-----------------------------------------------------------------------|

(pattern 4 - harmonics)

e|-(5)---(5)-------------------------------------------------------------|
B|----------(5)---(5)-----------(7)-------(9)----------------------------|
G|-------------------(5)-----(5)-----(9)---------------------------------|
D|-----------------------------------------------------------------------|
A|-----------------------------------------------------------------------|
E|-----------------------------------------------------------------------|

(End on)

e|------(5)--|
B|-(5)-------|
G|-----------|
D|-----------|
A|-----------|
E|-----------|
Tap to rate this tab
 
# A B C D E F G H I J K L M N O P Q R S T U V W X Y Z