Guitaretab - guitar tabs
Song name
# A B C D E F G H I J K L M N O P Q R S T U V W X Y Z

Siouxsie And The Banshees - Painted Bird tab

Siouxsie and the Banshees
Painted Bird - From Nocturne and A kiss in the Dream House

The performance of painted bird from Nocturne, with Robert Smith on guitar is a more 
reflection of the song, played in it's single guitar form so here goes.

Still working on the crazy intro..

but the intro is
[ Tab from: ]
E| --------------------------------------------------------------------|
B| --------------------------------------------------------------------|
G| ------------5555/--9999-/12-12-12-12--------------------------------|
D| -3333-/7777-xxxx/--xxxx-/-x--x--x-x---------------------------------|
A| -xxxx-/xxxx-3333/--7777-/10-10-10-10--------------------------------|
E| -1111-/5555---------------------------------------------------------|

And then the verse is a reptiton of;
E| ----8-------8----8 -----      --10-------10------10--------------------|
B| ------10 ----------10---      -----8----------------8------------------|
G| ----------9-----------9-- X3     ------9----------------9--------------| X3
D| --------------------------        -------------------------------------|
A| ----------------------------       ------------------------------------|
E| -----------------------------       -----------------------------------|
Related for Painted Bird tab