Song name
# A B C D E F G H I J K L M N O P Q R S T U V W X Y Z

Sister Hazel - Happy tab

-------------------------------------------------------------------------------
			     HAPPY - Sister Hazel
-------------------------------------------------------------------------------

By:Jason Zielinski

Intro:
e|-0--0----------0--0----------0--0----------0--0-|
B|-1--1----------1--1----------1--1----------1--1-|
G|-2--2----------2--2----------2--2----------2--2-|
D|-2--2----------2--2----------2--2----------2--2-|
A|-0--0----------0--0----------0--0----------0--0-|
E|-0--0----------0--0----------0--0----------0--0-|

Verse 1:(play 4 times)
e|-0----------0----------3----------0-|
B|-1----------1----------0----------0-|
G|-2----------0----------0----------0-|
D|-2----------2----------0----------2-|
A|-0----------3----------2----------2-|
E|-0----------0----------3----------0-|

Chorus:(play 4 times)
e|-0----------3----------0----------1-|
B|-1----------0----------1----------1-|
G|-0----------0----------2----------2-|
D|-2----------0----------2----------3-|
A|-3----------2----------0----------0-|
E|-0----------3----------0----------0-|

Before Verse 2:
e|-0--0-|
B|-1--1-|
G|-2--2-|
D|-2--2-|
A|-0--0-|
E|-0--0-|

Verse 2:(play 3 times)
e|-0----------0----------3----------0-|
B|-1----------1----------0----------0-|
G|-2----------0----------0----------0-|
D|-2----------2----------0----------2-|
A|-0----------3----------2----------2-|
E|-0----------0----------3----------0-|

Chorus: X 2
e|-0----------3----------0----------1-|
B|-1----------0----------1----------1-|
G|-0----------0----------2----------2-|
D|-2----------0----------2----------3-|
A|-3----------2----------0----------0-|
E|-0----------3----------0----------0-|

Solo: (Not sure about the solo but I think its the verse chords played 3 times)

Verse 3:(play 4 times)
e|-0----------0----------3----------0-|
B|-1----------1----------0----------0-|
G|-2----------0----------0----------0-|
D|-2----------2----------0----------2-|
A|-0----------3----------2----------2-|
E|-0----------0----------3----------0-|

Chorus: X 2
e|-0----------3----------0----------1-|
B|-1----------0----------1----------1-|
G|-0----------0----------2----------2-|
D|-2----------0----------2----------3-|
A|-3----------2----------0----------0-|
E|-0----------3----------0----------0-|


Ending:
e|-0---0---1---3---0---0----------0---0---1---1---3---3-|
B|-1---1---1---0---1---1----------1---1---1---1---0---0-|
G|-2---2---2---0---0---0----------2---2---2---2---0---0-|
D|-2---2---3---0---2---2----------2---2---3---3---0---0-|
A|-0---0---0---2---3---3----------0---0---0---0---2---2-|
E|-0---0---0---3---0---0----------0---0---0---0---3---3-|

===============================================================================
Tap to rate this tab
 
# A B C D E F G H I J K L M N O P Q R S T U V W X Y Z