Song name
# A B C D E F G H I J K L M N O P Q R S T U V W X Y Z

Sixx Am - Oh My God tab

Oh my god By Sixx Am
Great Song!

The song is basically played with these chords over and over again

D        Bm
A        G

During those chords another guitar play this

e|------------------------------------------|
B|--7-8-7--------7-8-10--------7-8-7--------|
G|-7-------x4---7--------x4---7-------x4----|
D|------------------------------------------|
A|------------------------------------------|
E|------------------------------------------|


e|------------------------------------------|
B|--7-8-7-5-7-8-7-5-7-8-7-5-7-8-7-----------|
G|-7----------------------------------------|
D|------------------------------------------|
A|------------------------------------------|
E|------------------------------------------|

I have not figured out the solo parts other than that they 
play the same chord progression. 

I chose to not include the lyrics since I havn't gotten them 
quite right yet.
Tap to rate this tab
 
# A B C D E F G H I J K L M N O P Q R S T U V W X Y Z