Song name
# A B C D E F G H I J K L M N O P Q R S T U V W X Y Z

Sixx Am - This Is Gonna Hurt tab

I learned this by watching DJ Ashba's guitar lesson so I'm pretty sure this is 100% correct
tunning D A D G B E

The Intro is done by slapping the strings with your thumb
    X3          
|--|-----------------|--------------------|
|--|-----------------|--------------------|
|--|-----------------|--------------------|
|-3|-x--x--x--x--x-x-|-x--x--x--x-3-------|
|-3|-x--x--x--x--x-x-|-x--x--x--x-3-------|
|-3|-x--x--x--x--x-x-|-x--x--x--x-3-------|
    First 3X          4X

Melody
|-----------------------------------------------------------|
|-----------------------------------------------------------|
|--7/19--12-14-15-14-12-10-9--7/19-12-14-15-14-12-10-9------|
|--x/x---x--x--x--x--x--x--x--x/x--x--x--x--x--x--x--x------|
|--5/17--10-12-13-12-10-8--7--5/17-10-12-13-12-10-8--7------|
|-----------------------------------------------------------|

Verse 1
X2
|-1-1--XXXXXX-1-1--XXXXXX-------XXXXXX------XX-------XX-----|
|-3-3--XXXXXX-3-3--XXXXXX-------XXXXXX------XX-------XX-----|
|-2-2--XXXXXX-2-2--XXXXXX--3-3--XXXXXX------XX--5-5--XX-----|
|-0-0--XXXXXX-0-0--XXXXXX--3-3--XXXXXX--5-5-XX--5-5--XX-----|
|------XXXXXX------XXXXXX--1-1--XXXXXX--5-5-XX--3-3--XX-----|
|------XXXXXX------XXXXXX-------XXXXXX--5-5-XX-------XX-----|

Pre-Chorus
|-1-1-XX-1-1-XX-1-1-XX-1-1-XX-----XX-----XX-----XX-----------|
|-3-3-XX-3-3-XX-3-3-XX-3-3-XX-----XX-----XX-----XX-----------|
|-2-2-XX-2-2-XX-2-2-XX-2-2-XX-3-3-XX-3-3-XX-----XX-5-5-------|
|-0-0-XX-0-0-XX-0-0-XX-0-0-XX-3-3-XX-3-3-XX-5-5-XX-5-5-------|
|-----XX-----XX-----XX-----XX-1-1-XX-1-1-XX-5-5-XX-3-3-------|
|-----XX-----XX-----XX-----XX-----XX-----XX-5-5-XX-----------|

     Build Up
|--|---------------------------------------------------------|
|--|---------------------------------------------------------|
|-3|3-3-3-3-3-3-3-3-3-3-3-3----------------------------------|
|-3|3-3-3-3-3-3-3-3-3-3-3-3----------------------------------|
|-1|1-1-1-1-1-1-1-1-1-1-1-1----------------------------------|
|--|---------------------------------------------------------|

     Build Up
|--|---------------------------------------------------------|
|--|---------------------------------------------------------|
|-5|5-5-5-5-5-5-5-5-5-5-5-5----------------------------------|
|-5|5-5-5-5-5-5-5-5-5-5-5-5----------------------------------|
|-3|3-3-3-3-3-3-3-3-3-3-3-3----------------------------------|
|--|---------------------------------------------------------|

Chorus
X2
|-1-----------------------------------------------------------|
|-3-----------------------------------------------------------|
|-2----------------------------------3-------------------2----|
|-0---------------3------------------3-------------------2----|
|-----------------3------------------1-------------------0----|
|-----------------3-------------------------------------------|


|----------------------------------------------16b-17-11-----|
|-/16B-17----------------------15-17-16b-17-15---------------|
|--------/15 14h15p14h15p14--14------------------------------|
|------------------------------------------------------------|
|------------------------------------------------------------|
|------------------------------------------------------------|

|------------------------------------------------------------|
|-16b-17-/15-13--13h15/17--16b-17--/14-15-17-----------------|
|------------------------------------------------------------|
|------------------------------------------------------------|
|------------------------------------------------------------|
|------------------------------------------------------------|

Melody

Verse 2
X2
|-1-1--XXXXXX-1-1--XXXXXX-------XXXXXX------------------------|
|-3-3--XXXXXX-3-3--XXXXXX-------XXXXXX------------------------|
|-2-2--XXXXXX-2-2--XXXXXX--3-3--XXXXXX--9v---9v---------------|
|-0-0--XXXXXX-0-0--XXXXXX--3-3--XXXXXX----10v--10v------------|
|------XXXXXX------XXXXXX--1-1--XXXXXX------------------------|
|------XXXXXX------XXXXXX-------XXXXXX------------------------|

Pre-Chorus
Chorus
Pre-Solo (Pick Slide with wah up the neck

Solo Pt 1
X2
      X4                 X4               X4          
|--17P13--------13|-18p13--------13|-13p10--------10--|
|-------15p13h15--|------15p13h15--|------11p10h11----|
|-----------------|----------------|------------------|
|-----------------|----------------|------------------|
|-----------------|----------------|------------------|
|-----------------|----------------|------------------|

       X3
|-12p9-------9-|-12----|
|-----10p9h10--|-------|
|--------------|-------|
|--------------|-------|
|--------------|-------|
|--------------|-------|

Solo pt 2
X2
|----------------------------------------------16b-17-11-----|
|-/16B-17----------------------15-17-16b-17-15---------------|
|--------/15 14h15p14h15p14--14------------------------------|
|------------------------------------------------------------|
|------------------------------------------------------------|
|------------------------------------------------------------|

|--------------------------------------------------------|----|
|-16b-17-/15-13h15p13h15p13--13h15/17--16b-17--/14-15-17-|-15v|Second time
|--------------------------------------------------------|----|
|--------------------------------------------------------|----|
|--------------------------------------------------------|----|
|--------------------------------------------------------|----|

V=Vibrato
P=Pull Off
H=Hammer On
/=Slide
B=Bend
Tap to rate this tab
 
# A B C D E F G H I J K L M N O P Q R S T U V W X Y Z