Guitaretab - guitar tabs
Song name
# A B C D E F G H I J K L M N O P Q R S T U V W X Y Z

Sixx Am - Lies Of The Beautiful People tab

Main riff
E|---------------------------------|              |------|               |-----|
B|---------------------------------|              |------|               |-----|
G|.-------------------------------.|              |------|               |-----|
D|---------------------------------|              |------|               |-----|
A|.-0h2-22520-2-22230-0h2-22520-2-.|              |22235-|               |2221-|
D|--0h2-22520-2-22230-0h2-22520-2--| First Ending |22235-| Second Ending |2221-|

Verse					Verse Fill
E|-----------------------------------| 		E|--------------------------|
B|-----------------------------------|		B|--------------------------|
G|-----------------------------------|		G|-555511111111777711111111-|
D|-----------------------------------|		D|--------------------------|
A|-0h22520-0h2222575-0h225202222-----|		A|-3333-9-9-9-95555-9-9-9-9-|
D|-0h22520-0h2222575-0h2252022222pbr-|		D|--------------------------|

Pre-chorus				Pre-chorus ending
E|-----------------------------------|		E|-----------------------------| 
B|-----------------------------------|		A|-----------------------------|
G|-7/9-XX-9\7-X-11-X-12-X-12-12\11\9-|		G|-7/9-X-7/9-X-7/9-X-9-XX-99\7-|
D|-----------------------------------|		D|-----------------------------|
A|-5/7-XX-7\5-X--9-X-10-X-10-10\-9\7-|		A|-5/7-X-5/7-X-5/7-X-7-XX-77\5-|
D|-----------------------------------|		D|-----------------------------|

Chorus
E|-------------------------------------------------------------------------------------------| 
B|-------------------------------------------------------------------------------------------|
G|----------------------------12----------------------7--------------------------------------|
D|----------------------------12----------------------7--------------------------------------|
A|-12h141414-151412-14-141414---1412-7h999-1097-9-999--97-10h121212-141210-12-121212-14121012|
D|-12h141414-151412-14-141414---1412-7h999-1097-9-999--97-10h121212-141210-12-121212-14121012|

E|--------------------------| 
B|--------------------------|
G|--------------------------|
D|--------------------------|
A|-5h7-X-7-XX-5h7-X-7-XX-75-|
D|-5h7-X-7-XX-5h7-X-7-XX-75-|
[ Tab from: http://www.guitaretab.com/s/sixx-am/276091.html ]
Solo A (w/ slide on pinky finger, unused)
E|-------12h15p12----14p12--15p12--14p12-----12h14p12----15p12-----------| 
B|-----12----------12----------------------12----------12-------15p12--13|
G|---12----------12-------12-----12------12----------12-------12-----12--|
D|-14----------------------------------14--------------------------------|
A|-----------------------------------------------------------------------|
D|-----------------------------------------------------------------------|

Solo B (w/ slide on pinky finger, used)	 Solo C (w/o slide, drop/move slide after solo B)
E|-----------------------------------------|    |------| 
B|-----------------------------------------|    |------|
G|---989--------989/12\11\9----------------|    |-14bp-|
D|-9----9-89-9-----------------------------|    |------|
A|-----------------------------------------|    |------|
D|--------------------------9\545\2-9\54\2/|    |------|

Solo D
E|-12p8--8----------------12p8--8------------------| 
B|-------------------------------------------------|
G|-----12--12p9h12p9--9--9-----12--12p9h12p9--9--9-|
D|------------------10-10-------------------10-10--|
A|-------------------------------------------------|
D|-------------------------------------------------|

E|-12p9--9---------------12p9--9----------------| 
B|----------------------------------------------|
G|-----12-12p9h12p9--9--9----12-12p9h12p9--9--9-|
D|-----------------11-11-----------------11-11--|
A|----------------------------------------------|
D|----------------------------------------------|


E|-14p10--10-------------------14p10--10--------------------| 
B|----------------------------------------------------------|
G|------14--14p11h14p11--11--11-----14--14p11h14p11--11--11-|
D|---------------------12--12----------------------12--12---|
A|----------------------------------------------------------|
D|----------------------------------------------------------|


E|-14p11--11-------------------14p11--11-----------------12~-| 
B|-----------------------------------------------------------|
G|------14--14p11h14p11--11--11-----14--14p11h14p11--11------|
D|---------------------13--13----------------------13--13----|
A|-----------------------------------------------------------|
D|-----------------------------------------------------------|


Song Order:
Main riff
Verse fill (No guitar for 1st half of verse)
Verse 
Pre-chorus
Chorus
Main riff
Verse riff
Verse fill
Verse riff
Pre-chorus
Chorus
Solo A
Solo B
Solo C
Solo D
Chorus
Main riff
Related for Lies Of The Beautiful People tab
×
Best way to learn
"Lies Of The Beautiful People"