Song name
# A B C D E F G H I J K L M N O P Q R S T U V W X Y Z

Sixx Am - Pray For Me tab

-------------------------------------------------------------------------------
			     PRAY FOR ME - SIXX A.M.
-------------------------------------------------------------------------------
Tabbed by: ironmanben
Email: bentrooper@gmail.com

Tuning: e B G D A D (drop D)

intro:
e|------------------------------|------------------------------|
B|-------2-2------------4-4-3-2-|-------2-2------------4-4-3-2-|
G|-3--3--2-2---3--3-----4-4-3-2-|-3--3--2-2---3--3-----4-4-3-2-|
D|-4--4--2-2---4--4-----4-4-3-2-|-4--4--2-2---4--4-----4-4-3-2-|
A|-4--4--0-0---4--4---4---------|-4--4--0-0---4--4---4---------|
D|-4--4--------4--4---4---------|-4--4--------4--4---4---------|
-|                                                             |
e|----------------------------------|-------------------------------------|
B|----------------------------------|-------------------------------------|
G|-11~(11~)(11~)(11~)9~(9~)(9~)(9~)-|-13~(13~)(13~)(13~)11~(11~)(11~)(11~)|
D|----------------------------------|-------------------------------------|
A|----------------------------------|-------------------------------------|
D|----------------------------------|-------------------------------------|

verse:
e|-----------------------------------------------------------|
B|------------------------------------2-2--------------------|
G|-3--3--2-2---3--3-----4-4-3-2-7--7--2-2---6--6-------------|
D|-4--4--2-2---4--4-----4-4-3-2-7--7--2-2---6--6---2-6/7-6-2-|
A|-4--4--0-0---4--4---0-2-2-1-0-5--5--0-0----------2-6/7-6-2-|
D|-4--4--------4--4---0----------------------------2-6/7-6-2-|
-|                                                           |
e|------------------------------------5h7p5-------7\5-5\4-4/5|
B|-----------------------------------------------------------|
G|-9h11-11-1111-9h11-11-11111111------------6--6-------------|
D|-----------------------------------------------------------|
A|------------------------------5--5-------------------------|
D|-----------------------------------------------------------|

pre-chorus:
e|----------------|----------|
B|----------------|----------|
G|-7-----------(7)|----------|
D|-7-----------(7)|-2-2--2-2-|
A|-5-----------(5)|-2-2--2-2-|
D|-0-----------(0)|-2-2--2-2-|
                   ^pre-chorus part 2

chorus:
e|----------------------------------------------------------|
B|----------------------------------------------------------|
G|-----------------------------7--7-7-7-7-7--4--4-4-4-4-3-2-|
D|-4--4-4-4---4--7--7-7-7-7-7--7--7-7-7-7-7--4--4-4-4-4-3-2-|
A|-4--4-4-4-2-4--7--7-7-7-7-7--5--5-5-5-5-5--2--2-2-2-2-1-0-|
D|-4--4-4-4-2-4--7--7-7-7-7-7-------------------------------|
-|                                                          |
e|-9--9-9-9-9-5--9--9-9-9-9-5--7--7-9---5-5--4--4-5---7-----|
B|-x--x-x-x-x-x--x--x-x-x-x-x--x--x-x---x-x--x--x-x---x-----|
G|-6--6-6-6-6-2--6--6-6-6-6-2--4--4-6---2-2--1--1-2---4-----|
D|----------------------------------------------------------|
A|----------------------------------------------------------|
D|----------------------------------------------------------|

e|----------------------------------------------------------|
B|----------------------------------------------------------|
G|-----------------------------7--7-7-7-7-7--4--4-4-4-4-3-2-|
D|-4--4-4-4---4--7--7-7-7-7-7--7--7-7-7-7-7--4--4-4-4-4-3-2-|
A|-4--4-4-4-2-4--7--7-7-7-7-7--5--5-5-5-5-5--2--2-2-2-2-1-0-|
D|-4--4-4-4-2-4--7--7-7-7-7-7-------------------------------|
-|                                                          |
e|-9--9-9-9-9-5--9--9-9-9-9-5--7--7-9---5-5--4--4-5---7-----|
B|-x--x-x-x-x-x--x--x-x-x-x-x--x--x-x---x-x--x--x-x---x-----|
G|-6--6-6-6-6-2--6--6-6-6-6-2--4--4-6---2-2--1--1-2---4-----|
D|----------------------------------------------------------|
A|----------------------------------------------------------|
D|----------------------------------------------------------|


e|---------------------------------------------------------|
B|---------------------------------------------------------|
G|-----------------------------4--4-4-4-4-4--7--7-7--------|
D|-4--4-4-4-4-4--2--2-2-2-2-2--4--4-4-4-4-4--7--7-7-2--2-2-|
A|-4--4-4-4-4-4--2--2-2-2-2-2--2--2-2-2-2-2--5--5-5-2--2-2-|
D|-4--4-4-4-4-4--2--2-2-2-2-2-----------------------2--2-2-|
-|
e|-9--9-9-9-9-5--9--9-9-9-9-5--7--7-9--5-5--4--4-5--7-7----|
B|-x--x-x-x-x-x--x--x-x-x-x-x--x--x-x--x-x--x--x-x--x-x----|
G|-6--6-6-6-6-2--6--6-6-6-6-2--4--4-6--2-2--1--1-2--4-4----|
D|---------------------------------------------------------|
A|---------------------------------------------------------|
D|---------------------------------------------------------|

e|----------------------------------------------------------|
B|----------------------------------------------------------|
G|-----------------------------7--7-7-7-7-7--4--4-4-4-4-3-2-|
D|-4--4-4-4---4--7--7-7-7-7-7--7--7-7-7-7-7--4--4-4-4-4-3-2-|
A|-4--4-4-4-2-4--7--7-7-7-7-7--5--5-5-5-5-5--2--2-2-2-2-1-0-|
D|-4--4-4-4-2-4--7--7-7-7-7-7-------------------------------|
-|                                                          |
e|-9--9-9-9-9-5--9--9-9-9-9-5--7--7-9---5-5--4--4-5---7-----|
B|-x--x-x-x-x-x--x--x-x-x-x-x--x--x-x---x-x--x--x-x---x-----|
G|-6--6-6-6-6-2--6--6-6-6-6-2--4--4-6---2-2--1--1-2---4-----|
D|----------------------------------------------------------|
A|----------------------------------------------------------|
D|----------------------------------------------------------|

guitar solo:
 | x2                    | x1                                     |
e|-----------------------|----------------------------------------|
B|-----------------------|----------------------------------------|
G|11/14-14\13-13/16-16-11|-7/14-14\13-13/16-16-7-14\1313\1111\1010|
D|-x-x--x--x--x--x--x--x-|-x-x--x--x--x--x--x--x-x--x--x--x-x-x-x-|
A|-9/12-12\11-11/14-14-9-|-5/12-12\11-11/14-14-5-12\11-11\9-9\8-8-|
D|-----------------------|----------------------------------------|

Order:
intro x2
verse x3 (guitar 1 only)
verse x2
pre-chorus x1 (without part 2)
chorus x1
verse x1 (guitar 1 only)
verse x4
chorus x1
intro x3 (guitar 1 only; guitar 2 plays guitar solo over)
bridge (synth only)
chorus x2


| /  slide up
| \  slide down
| h  hammer-on
| p  pull-off
| ~  vibrato
| +  harmonic
| x  Mute note
===============================================================================
Tap to rate this tab
 
# A B C D E F G H I J K L M N O P Q R S T U V W X Y Z