Sixx Am - Live Forever tab

Tabbed by Breadtruck

FIRST OFF, I know this song is probably played in drop D on the studio recording, but my
band plays in drop C and I tabbed this out for us. If you want to play this in drop D,
just play everything 2 frets down. I think it sounds better like this anyway, as it 
gives it a slightly heavier feel.

This is my first tab on Ultimate Guitar and I decided to share it because I wanted to
give back to the UG community, seeing as I use the website so much, and I noticed there
was no existing tab for this awesome new Sixx
A.M. song. There might be a few errors in the solo as it was kinda tricky, but it's just
a guideline. Feel free to improvise and add in your own style when you're playing this
at home. :)


Intro

D:|-------------------|             D:|---------------|
A:|-------------------|             A:|---------------|
F:|----------/9-/9----| (x3) then   F:|----7-----7----|
C:|-----------x--x----|             C:|----x-----x----|
G:|-4-5-7-2--/7-/7----|             G:|-55-5--77-5----|
C:|-4-5-7-2-----------|             C:|-55----77------|
    . . . .                             ..    ..

Verse 1

D:|--------------------------------|             D:|--------------|
A:|--------------------------------|             A:|--------------|
F:|--------------5-55-5--2-22-2----| (x3) then   F:|--5-----------|
C:|-2-22---22-2--5-55-5--2-22-2----|             C:|--5--(x16)----|
G:|-2-22---22-2--3-33-3--0-00-0----|             G:|--3-----------|
C:|-2-22---22-2--------------------|             C:|--------------|

D:|--------------------------------|             D:|-----------------|
A:|--------------------------------|             A:|-----------------|
F:|-----------------7-------6------| (x2) then   F:|--5--------------|
C:|-2-------5-------7-(x8)--6-(x8)-|             C:|--5--(x14)-------|
G:|-2-(x8)--5-(x8)--5-------4------|             G:|--3---------10\--|
C:|-2-------5----------------------|             C:|------------10\--|
    .       .       .       .
(slowly release palm mutes 2nd time around)


Chorus

D:---------------------------------------------------------------------|
A:---------------------------------------------------------------------|
F:------------------4444444444444444------------------5555555555555555-|
C:-5555555555555555-4444444444444444-2222222222222222-5555555555555555-| (x2)
G:-5555555555555555-2222222222222222-2222222222222222-3333333333333333-|
C:-5555555555555555------------------2222222222222222------------------|

Intro again

Verse 2

D:|--------------------------------|
A:|--------------------------------|
F:|--------------5-55-5--2-22-2----| (x2)
C:|-2-22---22-2--5-55-5--2-22-2----|
G:|-2-22---22-2--3-33-3--0-00-0----|
C:|-2-22---22-2--------------------|

D:|--------------------------------|
A:|--------------------------------|
F:|-----------------7-------6------| (x2)
C:|-2-------5-------7-(x8)--6-(x8)-|
G:|-2-(x8)--5-(x8)--5-------4------|
C:|-2-------5----------------------|
    .       .       .       .
(slowly release palm mutes 2nd time around)

                 D:|---------------------------|
                 A:|---------------------------|
then lead plays  F:|--5555-7777-9999-11111111--|
                 C:|--xxxx-xxxx-xxxx-x-x-x-x---|
                 G:|--3333-5555-7777-9-9-9-9---|
                 C:|---------------------------|

Chorus again

Bridge

D:|-----------------|             D:|-------------------|
A:|-----------------|             A:|-------------------|
F:|-----------------| (x3) then   F:|-------------3--2--|
C:|----------2-2-2--|             C:|-------------3--2--|
G:|-4-5-7-2--2-2-2--|             G:|-4-5-7-2-22--1--0--|
C:|-4-5-7-2--2-2-2--|             C:|-4-5-7-2-22--------|
    . . . .  . . .                    . . . . ..

D:|-----------------------------------|            D:|-------------------|
A:|-----------------------------------|            A:|-------------------|
F:|-----------------------------------| (x2) then  F:|-------------------|
C:|--5---5---9---9---4---4---7---7----|            C:|--5---5---5---5----|
G:|----7---7---5---5---5---5---4---4--|            G:|----3---3---3---3--|
C:|-----------------------------------|            C:|-------------------|

Solo

D:|-------------------------------------------------19b20r19--|
A:|------10~-12~--12-13-12----------------16b17r16------------|
F:|--12~-------------------12-11------------------------------|
C:|------------------------------13b14r13---------------------|
G:|-----------------------------------------------------------|
C:|-----------------------------------------------------------|

D:|-t15p14p10-t15p14p10-t17p15p10-t17p15p10-15p14p10-15p14p10-t17p15p10-\-|
A:|---------------------------------------------------------------------\-|
F:|---------------------------------------------------------------------\-|
C:|-----------------------------------------------------------------------|
G:|-----------------------------------------------------------------------|
C:|-----------------------------------------------------------------------|

D:|-14h15p14h15-10h12p10h12---------------------------|
A:|-------------------------12h13p12h13---------------|
F:|--------------------------------------11h12p11h12--|
C:|---------------------------------------------------|
G:|---------------------------------------------------|
C:|---------------------------------------------------|

D:|--------------10h12p10h12-14h15p14h15--\20-19--|
A:|--12h13p12h13----------------------------------|
F:|-----------------------------------------------|
C:|-----------------------------------------------|
G:|-----------------------------------------------|
C:|-----------------------------------------------|

D:|-------15-------15----------15----------17-15--|
A:|-12-13----12-13----12-13-12----12-13-12--------|
F:|-----------------------------------------------|
C:|-----------------------------------------------|
G:|-----------------------------------------------|
C:|-----------------------------------------------|

D:|-------14-------14----------14----------15-14--|
A:|-10-12----10-12----10-12-10----10-12-10--------|
F:|-----------------------------------------------|
C:|-----------------------------------------------|
G:|-----------------------------------------------|
C:|-----------------------------------------------|

D:|-12~-14~-15~-17/19---12~-14~-15~--19b20r19b20r19--15~---|
A:|--------------------------------------------------------|
F:|--------------------------------------------------------|
C:|--------------------------------------------------------|
G:|--------------------------------------------------------|
C:|--------------------------------------------------------|

Rhythm plays chorus during solo, then twice more after it's finished.


Lead during last 2 chorus'

D:|----------14~-11~--------14h15~--14-15/17-15-14-12~-14~-15~-----------|
A:|-12-13-12---------12~--\------------------------------------16b17-15~-|
F:|----------------------------------------------------------------------|
C:|----------------------------------------------------------------------|
G:|----------------------------------------------------------------------|
C:|----------------------------------------------------------------------|

D:|------------------------------------|
A:|-/15-12-15~-/16-12-13-12----12-/16~-|
F:|-------------------------14---------|
C:|------------------------------------|
G:|------------------------------------|
C:|------------------------------------|

D:|-------14-14b15r14-12~-/15-14-12~-10-12~-14~-15~-17~-14~-|
A:|/16-17---------------------------------------------------|
F:|---------------------------------------------------------|
C:|---------------------------------------------------------|
G:|---------------------------------------------------------|
C:|---------------------------------------------------------|

(then lead guitar spazzes out using lots of effects etc)


Intro again


And you're done. :)
Please rate and comment etc.
Tap to rate this tab
 
# A B C D E F G H I J K L M N O P Q R S T U V W X Y Z