Song name
# A B C D E F G H I J K L M N O P Q R S T U V W X Y Z

Sixx Am - Smile tab

----------------------------------------------------------------------------
                           Smile - Sixx: AM
----------------------------------------------------------------------------
Feel free to email me with and questions or any mistakes you see so that i can fix it.  
Other than that, have fun with the tab and keep rockin!

Tabbed by: Danny Hennessy
Email: henboyrules@aol.com

Tuning: DGCAFD

d|-------------------------------------------------------------------------|
F|-----------------------------------------------------/15-----------------|
A|------7----9b------------7---9---12b-------------------------------------|
C|--9--------------------9-------------------11b---------------------------|
G|-------------------------------------------------------------------------|
D|-------------------------------------------------------------------------|

d|-------------------------------------------------------------------------|
F|-------------------------------------------------------------------------|
A|-11--12--11---12----11---------11----------------------------------------|
C|-------------------------------11----------11---12-----14---12-----------|
G|-------------------------------------------------------------------------|
D|-------------------------------------------------------------------------|

d|-------------------------------------------------------------------------|
F|------------------15-----------------------------------------------------|
A|------------16--------16-------------------------------------------------|
C|--14/16---------------------14br---12----14br---12----14/16--------------|
G|-------------------------------------------------------------------------|
D|-------------------------------------------------------------------------|

d|-----------------------------------------------------------17------------|
F|--------17b-17rb--------------15---------17/19----------15--17-----------|
A|--14------------------14---14--------14----------------------------------|
C|-------------------------------------------------------------------------|
G|-------------------------------------------------------------------------|
D|-------------------------------------------------------------------------|

d|--17---------------------------------------------------------------------|
F|--------17/19----17----15-----19b----17b----15---------------------------|
A|-------------------------------------------------------------------------|
C|-------------------------------------------------------------------------|
G|-------------------------------------------------------------------------|
D|-------------------------------------------------------------------------|





************************************

| /   slide up
| \   slide down
| h   hammer-on
| p   pull-off
| ~   vibrato
| +   harmonic
| x   Mute note
| b   Bend
| pb  Pre-bend
| br  Bend release
| pbr Pre-bend release
| brb Bend release bend

************************************
Tap to rate this tab
# A B C D E F G H I J K L M N O P Q R S T U V W X Y Z