Song name
# A B C D E F G H I J K L M N O P Q R S T U V W X Y Z

Sk8 Or Die - Just Go tab

hi this is my first tab its from my band with my friend so enjoy and to hear the song go 
patricknj16 on youtube which is our account

intro
pm.......................................
e|--------------------------------------------|
b|--------------------------------------------|
g|--------------------------------------------|
d|-------------7--7----5--5----3--3--3--3-----|
a|-------------7--7----5--5----3--3--3--3-----|
e|-----------555555--333333--111111111111-----|X2


e|----------------------------------|
b|----------------------------------|
g|----------------------------------|
d|-----3---3----3---3---3-----------|
a|-----3---3----3---3---3-----------|
e|-----1---1----1---1---1-----------|
Tap to rate this tab
# A B C D E F G H I J K L M N O P Q R S T U V W X Y Z