Song name
# A B C D E F G H I J K L M N O P Q R S T U V W X Y Z

Sk8 Or Die - Goodbye Forever tab

        Sk8 or die - Goodbye Forever remeber their youtube account patricknj16. ok...

Pm - Paum mute

Verse 1-3
pm..................................
E:--------------------------------------|
B:--------------------------------------|
G:--------------------------------------|
D:----------------------5-5-5-----------|
A:----7-7-7----3-3-3----3-3-3--5-5-5----|
E:----5-5-5----1-1-1-----------3-3-3----|X8


Chorus 1-4

E:--------------------------------------------|
B:--------------------------------------------|
G:--------------------------7-7-7-7-----------|
D:----9-9-9-9---5-5-5-5-----7-7-7-7---7-7-7-7-|
A:----9-9-9-9---5-5-5-5-----5-5-5-5---7-7-7-7-|
E:----7-7-7-7---3-3-3-3---------------5-5-5-5-|
Tap to rate this tab
# A B C D E F G H I J K L M N O P Q R S T U V W X Y Z