Song name
# A B C D E F G H I J K L M N O P Q R S T U V W X Y Z

Skid Row - Here I Am tab

This is my first my tab so please go easy on me. I believe this intro is pretty accurrate. 

Skid Row- Here I Am (1989)

Intro/Chorus
e-------------------------------------------------------------|
B-------------------------------------------------------------|
G-------------------------------------------------------------|
D-------------------------------------------------------------|
A---------------7----5--------5---5-----5---7----5b-----------|
E--0--0--3--0------------0-----------0------------------------|


e-------------------------------------------------------------|
B-------------------------------------------------------------|
G-------------------------------------------------------------|
D-------------------------------------------------------------|
A---------------7----5--------5---5---------------------------|
E--0--0--3--0------------0-----------0-----3----5---3b--------|

e-------------------------------------------------------------|
B-------------------------------------------------------------|
G-------------------------------------------------------------|
D-------------------------------------------------------------|
A---------------7----5--------5---5-----5---7----5b-----------|
E--0--0--3--0------------0-----------0------------------------|

e-------------------------------------------------------------|
B-------------------------------------------------------------|
G-------------------------------------------9-----------------|
D-------------------------------------------9-----------------|
A---------------7----5----------------------7-----------------|
E--0--3--5--7------------3---0----0---0-----------------------|

Thats pretty much the Intro. Its played very fast so its difficult trying to match
Dave "The Snake"'s speed. Listen to the song for timing and what not.

Good luck and Rock On
Tap to rate this tab
# A B C D E F G H I J K L M N O P Q R S T U V W X Y Z