Song name
# A B C D E F G H I J K L M N O P Q R S T U V W X Y Z

Skillet - Forsaken tab

Song:Forsaken(Intro)
Band:Skillet

d|---------------------|----------------------|---------------------|
a|---------------------|----------------------|---------------------|
f|------------8/7--8~--|------------8/7-------|------------8/7--8~--|
c|------------x/x--x~--|------------x/x-------|------------x/x--x~--|
g|----0-0--0006/5xx6~--|----0-0--0006/5xx-3~--|----0-0--0006/5xx6~--|
c|----0-0--000---xx----|----0-0--000---xx-3~--|----0-0--000---xx----|

 |---------------------|
 |---------------------|
 |---------------------|    Pause for a second.
 |---------------------|
 |----0-0--0-0-00------|
 |----0-0--0-0-00------|

d|---------------------|----------------------|
a|---------------------|----------------------|
f|------------8/7--8~--|------------8/7-------|
c|------------x/x--x~--|------------x/x-------|
g|----0-0--0006/5xx6~--|----0-0--0006/5xx-3~--|
c|----0-0--000---xx----|----0-0--000---xx-3~--|

I hope this is helpful to anyone and please leave comments to let me know if I did a 
job or not.
Thank You :)
Tap to rate this tab
# A B C D E F G H I J K L M N O P Q R S T U V W X Y Z