Song name
# A B C D E F G H I J K L M N O P Q R S T U V W X Y Z

Skillet - Its Not Me Its You tab

Song: It's Not Me It's You
Artist: Skillet
Album: Awake

Tuning: Drop D

Ok, heres my interpretation of the intro of It's Not Me It's You. If this gets good
I'll probably tab the whole song. I don't know if there are any other tabs of this on here,
haven't checked, so this is NOT a rip off of someone elses tab lol. If you like this 
out my tabs for Hero and Monster. Please rate and post comments.

======GUITAR=1======

e|-------------------|------------------|
B|------12~----------|-----8~-----------|
G|------11~----------|-----7~-----------|
D|--9-9-9~---4-4-4-4-|-5-5-5~--7-7-4-4--|
A|--9-9-9~---4-4-4-4-|-5-5-5~--7-7-4-4--|
D|--9-9-9~---4-4-4-4-|-5-5-5~--7-7-4-4--|

e|-----------------|-----------------|
B|-----------------|-----------------|
G|-----------------|-----------------| Play
D|--9-9~---4-4-4-4-|-5-5~---7-7-4-4--|  x2
A|--9-9~---4-4-4-4-|-5-5~---7-7-4-4--|
D|--9-9~---4-4-4-4-|-5-5~---7-7-4-4--|

======GUITAR=2======

e|--14~--|-------------15~--|-15-14-12-15-14~--|
B|-------|-14-15-14-12------|------------------|
G|-------|------------------|------------------|
D|-------|------------------|------------------|
A|-------|------------------|------------------|
D|-------|------------------|------------------|

e|--------------15~-|--15-14-12-----|
B|--14-15-14-12-----|-----------15--|
G|------------------|---------------|
D|------------------|---------------|
A|------------------|---------------|
D|------------------|---------------|
Tap to rate this tab
 
# A B C D E F G H I J K L M N O P Q R S T U V W X Y Z