Song name
# A B C D E F G H I J K L M N O P Q R S T U V W X Y Z

Skillet - Rebirthing tab

-------------------------------------------------------------------------------
			     SONG NAME - Band Name
-------------------------------------------------------------------------------
Tabbed by:mattjnorman8
Email:mattjnorman8@yahoo.com

Tuning:

eb|----17---------17h18p17----------------17-------------20-------------------|
Bb|--------15-------------------15---------------15--------------15-----------|
Gb|---------------------------------------------------------------------------|
Db|---------------------------------------------------------------------------|
Ab|---------------------------------------------------------------------------|
Db|---------------------------------------------------------------------------|

eb|---17----------17h18p17----------------17-------------20-------22----------|
Bb|--------15--------------------15--------------15---------------------------|
Gb|---------------------------------------------------------------------------|
Db|---------------------------------------------------------------------------|
Ab|---------------------------------------------------------------------------|
Db|---------------------------------------------------------------------------|
play as the intro and after each refrain during the part with the strings. you can 
out how many times by listening to the recording

| /  slide up
| \  slide down
| h  hammer-on
| p  pull-off
| ~  vibrato
| +  harmonic
| x  Mute note
===============================================================================
Tap to rate this tab
# A B C D E F G H I J K L M N O P Q R S T U V W X Y Z