Song name
# A B C D E F G H I J K L M N O P Q R S T U V W X Y Z

Skrillex - Cinema tab

|--------------------------------------------------|
|-14-----------------------------------------------|
|-----11----11--14-14--11---11-11-11--------11-----|
|------------------------------------14-11-----11--|
|--------------------------------------------------|
|--------------------------------------------------|
    You are a cinema       I could watch you forever

|--------------------------------------------------|
|-14--------------------------------13-------------|
|-----11---14--11----11-11-11-14-14-----14---------|
|--------------------------------------------------|
|--------------------------------------------------|
|--------------------------------------------------|
  Action thriller   I could watch you forever

|-----------------------------------------------|
|-14--------------------------------------------|
|-----11----11--14-14--11---11-11--------11-----|
|---------------------------------14-11------11-|
|-----------------------------------------------|
|-----------------------------------------------|
    You are a cinema        A Hollywood treasure

|----------------------------------------------------------|
|-14-------------------------------------------------------|
|-----11----11-11-14-14-11----11--14-14-14----11--14-14-14-|
|----------------------------------------------------------|
|----------------------------------------------------------|
|----------------------------------------------------------|
  Love you just the way you are    A cinema a cinema

|-----------------|
|-----------------|
|----11--14-14-14-|    x7
|-----------------|
|-----------------|
|-----------------|
      A cinema

DR-DR-DR DR-DR-DR DROP THE BASS!

|---------2-2-2-2-2-2-2-2--------------222222222222-2----|
|--------------------------------------------------------|
|--------------------------------------------------------|
|-7--4-------------------------7--4----------------------|
|-7--4-------------------------7--4----------------------|
|-5--2--------------------2----5--2----------------------|
                        [Half]

|---------2-2-2-2-2-2-2-2------2------2-----------------|
|-------------------------------------------------------|
|------------------------------------------------------6|
|2-4-7--4-------------------------------------------7---|
|2-4-7--4----------------------------------------4------|
|0-2-5--2-----------------2-------2-2----2-2--5---------|
                        [Half]

|---------2-2-2-2-2-2-2-2--------------222222222222-2----|
|--------------------------------------------------------|
|--------------------------------------------------------|
|-7--4-------------------------7--4----------------------|
|-7--4-------------------------7--4----------------------|
|-5--2--------------------2----5--2----------------------|
                        [Half]

|---------2-2-2-2-2-2-2-2------2--------------------------------|
|---------------------------------------------------------------|
|--------------------------------------------------11--14-14-14-|
|2-4-7--4-------------------------------------------------------|
|2-4-7--4-------------------------------------------------------|
|0-2-5--2-----------------2-------2-2-2-2-2-2-2-----------------|
                        [Half]                       A Cinema



More Dub. Mostly the same, so I didn't feel a need to write it out.

There's alot more to the song, but I don't have the time to write all out. Enjoy what I 
gave you.
Tap to rate this tab
# A B C D E F G H I J K L M N O P Q R S T U V W X Y Z