Song name
# A B C D E F G H I J K L M N O P Q R S T U V W X Y Z

Skycamefalling - The Nothing tab

SKYCAMEFALLING - THE NOTHING

    Eb|---------------------------------------------------|
    Bb|---------------------------------------------------|
GTR Gb|-9-9-9-9---9-9-9-9---9-9--14141414--14141414--1414-| x4   
 1  Db|-12121212--12121212--1212-12121212--12121212--1212-|              
    Ab|---------------------------------------------------|
    Db|---------------------------------------------------|

    Eb|---------------------------------------------------|
    Bb|---------------------------------------------------|
GTR Gb|-9-9-9-9---9-9-9-9---9-9--14141414--14141414--1414-| x4 
 1  Db|-12121212--12121212--1212-12121212--12121212--1212-|              
    Ab|---------------------------------------------------|
    Db|---------------------------------------------------|

    Eb|-----------------------------------------------------|
    Bb|-----------------------------------------------------|
GTR Gb|-----------------------------------------------------| x4   
 2  Db|-7-7-7-7--7-7-7-7--7-7--5-5-5-5-5-5-5-8-7-7-10-10-10-|              
    Ab|-0-0-0-0--0-0-0-0--0-0--5-5-5-5-5-5-5-8-7-7-10-10-10-|
    Db|-0-0-0-0--0-0-0-0--0-0--5-5-5-5-5-5-5-8-7-7-10-10-10-|

    Eb|-----------------------------------------------------|
    Bb|-----------------------------------------------------|
GTR Gb|-9-9-9-9---9-9-9-9---9-9-----------------------12-12-| x3 
 1  Db|-12121212--12121212--1212--5-5-5-5-5-5-5-8-7-7-10-10-|              
    Ab|---------------------------5-5-5-5-5-5-5-8-7-7-10-10-|
    Db|---------------------------5-5-5-5-5-5-5-8-7-7-10-10-|

    Eb|-----------------------------------------------------|
    Bb|-----------------------------------------------------|
GTR Gb|-----------------------------------------------------| x3  
 2  Db|-7-7-7-7--7-7-7-7--7-7--5-5-5-5-5-5-5-8-7-7-10-10-10-|              
    Ab|-0-0-0-0--0-0-0-0--0-0--5-5-5-5-5-5-5-8-7-7-10-10-10-|
    Db|-0-0-0-0--0-0-0-0--0-0--5-5-5-5-5-5-5-8-7-7-10-10-10-|

    Eb|-----------------------------------------------------|
    Bb|-----------------------------------------------------|
GTR Gb|-9-9-9-9---9-9-9-9---9-9-----------------------------| 
 1  Db|-12121212--12121212--1212--5-5-5-5-5-5-5-8-7---------|              
    Ab|---------------------------5-5-5-5-5-5-5-8-7---------|
    Db|---------------------------5-5-5-5-5-5-5-8-7---------|

    Eb|-----------------------------------------------------|
    Bb|-----------------------------------------------------|
GTR Gb|-----------------------------------------------------| 
 2  Db|-7-7-7-7---7-7-7-7---7-7---5-5-5-5-5-5-5-8-7---------|              
    Ab|-0-0-0-0---0-0-0-0---0-0---5-5-5-5-5-5-5-8-7---------|
    Db|-0-0-0-0---0-0-0-0---0-0---5-5-5-5-5-5-5-8-7---------|

    Eb|-------------------------|
    Bb|-------------------------|
GTR Gb|-------------------------| x4   
 1  Db|-------3---0h3p0---------|              
    Ab|-1-1-1---1-------3/5-5-5-|
    Db|-------------------------|
        PM PM PM 

    Eb|-------------------------|
    Bb|-------------------------|
GTR Gb|-------5-----------------| x4 (ACOUSTIC)    
 2  Db|-3-3-3-3-0-3/5-7--7-7-7--|              
    Ab|-1-1-1---------5--5-5-5--|
    Db|-------------------------|

    Eb|-------------------------|
    Bb|-------------------------|
GTR Gb|-------------------------| x4   
 1  Db|-------3---0h3p0---------|              
    Ab|-1-1-1---1-------3/5-5-5-|
    Db|-------------------------|
       PM PM PM PM    

    Eb|-------------------------|
    Bb|-------------------------|
GTR Gb|-3--3-3--5--7--7-7-7--7-7| x4 (ACOUSTIC)    
 2  Db|-3--3-3--5--7--7-7-7--7-7|              
    Ab|-1--1-1--3--5--5-5-5--5-5|
    Db|-------------------------|

    Eb|-----------------------------------------------|
    Bb|---------------------------------6-----------6-|
GTR Gb|---------7-7---------7-7---------7-----------7-| x2   
1+2 Db|-----------------------------------------------|              
    Ab|-0-0-0-0-6-6-0-0-0-0-6-6-0-0-0-0----0-0-0-0----|
    Db|-0-0-0-0-----0-0-0-0-----0-0-0-0----0-0-0-0----|
        P M P M     P M P M     P M P M    P M P M

    Eb|-----------------------------------------------|
    Bb|---------------------------------6-----------6-|
GTR Gb|---------7-7---------7-7---------7-----------7-| x2   
 1  Db|-----------------------------------------------|              
    Ab|-0-0-0-0-6-6-0-0-0-0-6-6-0-0-0-0----0-0-0-0----|
    Db|-0-0-0-0-----0-0-0-0-----0-0-0-0----0-0-0-0----|
        P M P M     P M P M     P M P M    P M P M


    Eb|-----------------------------------------------|
    Bb|---------------------------------6-----------6-|
GTR Gb|---------------------------------7-----------7-| x2    
 2  Db|-----------------------------------------------|              
    Ab|-0000--------0000--------0-0-0-0----0-0-0-0----|
    Db|-0000--12-12-0000--12-12-0-0-0-0----0-0-0-0----|
        PMPM        PMPM        P M P M    P M P M

REPEAT EVERYTHING AGAIN


    Eb|------|-------------------|------------------|
    Bb|------|------x3-----------|------------------|
GTR Gb|------|-------------------|------------------|    
 1  Db|------|-------------------|------------------|              
    Ab|-0-0--|0-0-0--0--0--0-0-0-|-0-0-0--0-0-0-0-0-|
    Db|-0-0--|0-0-0--0--0--0-0-0-|-0-0-0--0-0-0-0-0-|
        P M   PM PM  PM PM PM PM   PM PM  PM PM PM


    Eb|------------------|
    Bb|------------------|
GTR Gb|------------------| x3   
 1  Db|------------------|              
    Ab|-0-0-0--0-0-0-0-0-|
    Db|-0-0-0--0-0-0-0-0-|
        PM PM  PM PM PM    

---------------------------------------------------------

    Eb|------------------------|------------------------|
    Bb|------------------------|------------------------|
GTR Gb|------------------------|------------------------| 
 1  Db|------------------------|------------------------|
    Ab|-0-0-0--0-0-0-0-0-------|-0-0-0--0-0-0-0-0-------|
    Db|-0-0-0--0-0-0-0-0-------|-0-0-0--0-0-0-0-0-------|
        PM PM  PM PM PM          PM PM  PM PM PM         

    Eb|------------------------|------------------------|
    Bb|-------------------10---|------------------------|
GTR Gb|----------------------9-|----------------------7-|
 2  Db|------------------------|-------------------10---|           
    Ab|------------------------|------------------------|
    Db|------------------------|------------------------|

    Eb|-----------------------|-----------------------|
    Bb|-----------------------|-----------------------|
GTR Gb|-----------------------|-----------------------| 
 1  Db|-----------------------|-----------------------|
    Ab|-0-0-0--0-0-0-0-0------|-0-0-0--0-0-0-0-0------|
    Db|-0-0-0--0-0-0-0-0------|-0-0-0--0-0-0-0-0------|
        PM PM  PM PM PM         PM PM  PM PM PM

    Eb|------------------------|------------------------|
    Bb|-------------------10---|------------------------|
GTR Gb|----------------------9-|----------------------7-| 
 2  Db|------------------------|-------------------10---|           
    Ab|------------------------|------------------------|
    Db|------------------------|------------------------|

WHOLE SECTION x6
---------------------------------------------------------
  
    Eb|-----------------------|
    Bb|-----------------------|
GTR Gb|-----------------------|    
1+2 Db|----------------0------|              
    Ab|-0-0-0--0---0-0-0------|
    Db|-0-0-0--0---0-0-0------|
        PM PM      P M

    Eb|----------------------------------------|
    Bb|----------------------------------------|
GTR Gb|----------------------------------------|    
 1  Db|-----------------0-------------0--------| x4             
    Ab|-0-0-------------0-------------0--------|
    Db|-0-0-------------0-------------0--------|
        P M                                 

    Eb|----------------------------------------|
    Bb|---------10-----------------------------|
GTR Gb|-----7--------9-----7---9---7-----------| x4   
 2  Db|----------------------------------------|              
    Ab|----------------------------------------|
    Db|----------------------------------------|

    Eb|-------0--------------------5-|
    Bb|---------3---3--------5-------|
GTR Gb|-5-5-5-----5----7-7-7---7-7---| x4    
 1  Db|------------------------------|              
    Ab|------------------------------|
    Db|------------------------------|

    Eb|-------|
    Bb|-------|
GTR Gb|-----9-|    
1+2 Db|-----7-|              
    Ab|-0-0-7-|
    Db|-0-0-7-|

    Eb|--------------------|
    Bb|--------------------|
GTR Gb|----------------9-9-|    
1+2 Db|----------------7-7-| x7             
    Ab|-0-0---0-0--0-0-7-7-|
    Db|-0-0---0-0--0-0-7-7-|
        P M   P M  P M

    Eb|---------------------|
    Bb|---------------------|
GTR Gb|-----------------9-9-|    
 1  Db|-----------------7-7-| x8              
    Ab|-0-0---0-0---0-0-7-7-|
    Db|-0-0---0-0---0-0-7-7-|
        P M   P M   P M

    Eb|-----------5|------0-------|
    Bb|-------5----|--------3---3-|
GTR Gb|-7-7-7---7--|5-5-5-----5---| x8    
 2  Db|------------|--------------|              
    Ab|------------|--------------|
    Db|not 1st time|--------------|

    Eb|---------------------|
    Bb|---------------------|
GTR Gb|------------9-9------|    
1+2 Db|------------7-7------| x7             
    Ab|-0-0---0-0--7-7--0-0-|
    Db|-0-0---0-0--7-7--0-0-|
        P M   P M       P M

    Eb|-------------------|
    Bb|-------------------|
GTR Gb|-----------------9-|    
 1  Db|-----------------7-| x8              
    Ab|-0-0---0-0---0-0-7-|
    Db|-0-0---0-0---0-0-7-|
        P M   P M   P M

    Eb|-----------5|------0-------|
    Bb|-------5----|--------3---3-|
GTR Gb|-7-7-7---7--|5-5-5-----5---| x8    
 2  Db|------------|--------------|              
    Ab|------------|--------------|
    Db|not 1st time|--------------|

    Eb|-------------------|
    Bb|-------------------|
GTR Gb|------------9------|    
1+2 Db|------------7------| x22             
    Ab|-0-0---0-0--7--0-0-|
    Db|-0-0---0-0--7--0-0-|
        P M   P M  P M

END
Tap to rate this tab
 
# A B C D E F G H I J K L M N O P Q R S T U V W X Y Z