Song name
# A B C D E F G H I J K L M N O P Q R S T U V W X Y Z

Slapshock - Great Escape tab

Song: Great Escape
Band: Slapshock
Album: Novena

>>>dati ko pa to nakapa ngaun ko lang ishshare nyahahaha
ginawa ko lang simple para sa inyo magegets nu agad yan tapos lagyan nu na lang ng 
nung koreksyons and style
just get the pace fast and right
remember ur palm mutings

tuning: Dropped C (cgcfad)

intro/verse
1st guitar
-------------------------------------------------|
-------------------------------------------------|
-------------------------------------------------|
----7-----7-----7-----7-----7-----7-----8-----8--|5x
----5-----5-----5-----5-----5-----5-----6-----6--|
0-0-0-0-0-0-0-0-0-0-0-0-0-0-0-0-0-0-0-0-0-0-0-0--|


-------------------------------------------------|
-------------------------------------------------|
-------------------------------------------------|
----7-----7-----7-----7-----8-----5-----7-----7--|
----5-----5-----5-----5-----6-----3-----5-----5--|
0-0-0-0-0-0-0-0-0-0-0-0-0-0-0-0-0-0-0-0-0-0-0-0--|

2nd guitar
-------------|
-------------|
-------------|
-0-0-0--0-0--|
-0-0-0--0-0--|
-0-0-0--0-0--|

pre-chorus
-----------------------------|
-----------------------------|
-----------------------------|
--8-----5-----8---5---7---7--|
--6-----3-----6---3---5---5--|
0-0-0-0-0-0-0-0-0-0-0-0-0-0--|

chorus

---------------------------------------------|
---------------------------------------------|
--------------------------------10109-9-1010-|
-77777777-33333333-55555555-x-x-x-x-x-x-x-x--|2x
-55555555-11111111-55555555-x-x-8-8\7-7/8-8--|
-00000000-00000000-55555555-x-x--------------|


--------------------------|-------------------------|---------|
--------------------------|-------------------------|---------|
-1010105-12--101010101012-|-1010105-5-5-3-3-3-3-5-5-|---------|
-x-x-x-x-x-x-x-x-x-x-x-x--|-x-x-x-x-x-x-x-x-x-x-x-x-|-0-8-0---|
-8-8-8\3/10--8-8-8-8-8/10-|-8-8-8\3-3-3/1-1-1-1\3-3-|-0-8-0---|
--------------------------|-------------------------|-0-8-0---|


fill
-----9-------|
----9-9------|
---7---------|
--8----------|
-------------|
-------------|

verse
prechorus
chorus
then...

bridge
--------------------------------------------|
--------------------------------------------|
--------------------------------------------|6x
-7-5-7----7-5-7----7-5-7----7-5-7-7-8-5-7-7-|
-5\3/5-xx-5\3/5-xx-5\3/5-xx-5\3/5-5-6-3-5-5-|
-----x-xx-------xx-------xx-------x-x-x-x-x-|

chorus

hmmm.... sa aking pananaw at pandinig ay tama po ito... i played it many times in public 
namang umaangal...
kung kayo may anga email nu lang akow... jdc_cacdac@yahoo.com
Tap to rate this tab
 
# A B C D E F G H I J K L M N O P Q R S T U V W X Y Z