Song name
# A B C D E F G H I J K L M N O P Q R S T U V W X Y Z

Slapshock - Direction tab

This is the solo.  The chords can be divided between 2 guitars.
-----------------------------------------------------------|
-------------------------10-11-13p11p10----11p10-----h10---|
-------------9-10-12v-12----------------h12-------h12------|
--7-10-10/12-----------------------------------------------|
-8---------------------------------------------------------|
-----------------------------------------------------------|

-----------------------------13-13-13-13-11-10-------------|
-11p10-------10--------------13-13-13-13-11-10-11v---------|
-------h12p10--h12p10p9h10v--------------------10v---------|
-----------------------------------------------------------|
-----------------------------------------------------------|
-----------------------------------------------------------|

----13-11-10--------------13-11-10--------------13-11-10---|
----13-11-10-11-13v-11-13-13-11-10-11-13-11v-10-13-11-10---|
-10----------10-12v-10-12----------10-12-10v-10------------|
-----------------------------------------------------------|
-----------------------------------------------------------|
-----------------------------------------------------------|

-----------------------------------------------------------|
-11-11TR13-11v---------------------------------------------|
-10-10TR12-10v---------------------------------------------|
-----------------------------------------------------------|
-----------------------------------------------------------|
-----------------------------------------------------------|
The TR 12 means trill to the 12th fret

                   KOJI PUNK \M/
Tap to rate this tab
# A B C D E F G H I J K L M N O P Q R S T U V W X Y Z