Song name
# A B C D E F G H I J K L M N O P Q R S T U V W X Y Z

Slaughter And The Dogs - Situations tab

e|-----------------------------------------------------------------------------|
B|-12--12--12--12-- 12/ 151515------14-----151515------------------------------|
G|---13--13--13--13-------------13-----13---------14 13------------------------|
D|-----------------------------------------------------------------------------|
A|-----------------------------------------------------------------------------|
E|-----------------------------------------------------------------------------|

e|-----------------------------------------------------------------------------|
B|-12--12--12--12-- 12/ 151515------14-----151515-0----------------------------|
G|---13--13--13--13-------------13----13------------15-14----------------------|
G|-----------------------------------------------------------------------------|
D|-----------------------------------------------------------------------------|
A|-----------------------------------------------------------------------------|
E|-----------------------------------------------------------------------------|
Tap to rate this tab
 
# A B C D E F G H I J K L M N O P Q R S T U V W X Y Z