Song name
# A B C D E F G H I J K L M N O P Q R S T U V W X Y Z

Slayer - Catalyst tab

Tuning Eb


 RIFF 1A INTO VERSE x1

|KING
|---------------------------|---------------------------|
|---------------------------|---------------------------|
|---------------------------|---------------------------|
|------3--------------------|------3--------------------|
|------1--------6---5---3---|------1--------6-------5---|
|-0000---000000-4---3---1---|-0000---000000-4-00000-3---|
| ....   ......               ....   ......   .....
|
|HANNEMAN
|---------------------------|---------------------------|
|---------------------------|---------------------------|
|---------------------------|---------------------------|
|------3--------------------|------3--------------------|
|------1--------------------|------1--------6-------5---|
|-0000----------------------|-0000----------4-------3---|
  ....  x                     ....  x        x



|BOTH
|---------------------------|---------------------------|
|---------------------------|---------------------------|
|---------------------------|---------------------------|
|------3--------------------|------3--------------------|
|------1--------6---5---3---|------1--------5---4---3---|
|-0000---000000-4---3---1---|-0000---000000-3---2---1---|
  ....   ......               ....   ......



 RIFF 1 VERSE x1

|---------------------------|---------------------------|
|---------------------------|---------------------------|
|---------------------------|---------------------------|
|------3--------------------|------3--------------------|
|------1--------6---5---3---|------1--------5---4---3---|
|-0000---000000-4---3---1---|-0000---000000-3---2---1---|
  ....   ......               ....   ......


|---------------------------|---------------------------|
|---------------------------|---------------------------|
|---------------------------|---------------------------|
|------3--------------------|------3--------------------|
|------1--------6---5---3---|------1--------5---3---5---|
|-0000---000000-4---3---1---|-0000---000000-3---1---3---|
  ....   ......               ....   ......



 RIFF 2 BRIDGE x1

|---------------------------------------------------------------|
|---------------------------------------------------------------|
|---------------------------------------------------------------|
|---------------------------------------------------------------|
|-------------------------------------------------------5---3---|
|-22222-5-22222-3-22222-5-22222-3-22222-5-22222-3-22222-3---1---|
  ..... . ..... . ..... . ..... . ..... . ..... . .....


|---------------------------------------------------------------|
|---------------------------------------------------------------|
|---------------------------------------------------------------|
|---------------------------------------------------------------|
|-------------------------------------------------------5---5---|
|-22222-5-22222-3-22222-5-22222-3-22222-5-22222-3-22222-3---3---|
  ..... . ..... . ..... . ..... . ..... . ..... . .....



 RIFF 3 CHORUS x1

|-----------------|-----------------|-----------------|-----------------|
|-----------------|-----------------|-----------------|-----------------|
|-----------------|-----------------|-----------------|-----------------|
|-----------------|-----------------|-----------------|-----------------|
|---1-----1-------|---2-----1-------|---1-----1-------|---3-2---1-------|
|-0---2-1---2-1-0-|-0---3-2---2-1-0-|-0---2-1---2-1-0-|-0-----3---2-1-0-|
  .   . .           .   . .           .   . .           .


|-----------------|-----------------|-----------------|-----------------|
|-----------------|-----------------|-----------------|-----------------|
|-----------------|-----------------|-----------------|-----------------|
|-----------------|-----------------|-----------------|-----------------|
|---1-----1-------|---2-----1-------|---1-----1-------|---2-----1---3---|
|-0---2-1---2-1-0-|-0---3-2---2-1-0-|-0---2-1---2-1-0-|-0---3-2---2-1---|
  .   . .           .   . .           .   . .           . . . . . .



 SOLO 1 KING
  WAH_____________________________________________________________ WAH & BAR
|-----------------------------------------------151515141414131313------------|
|-888888888888999888999121212121212111111121212-------------------------------|
|-----------------------------------------------------------------------------|
|-----------------------------------------------------------------------------|
|-----------------------------------------------------------------------------|
|------------------------------------------------------------------0//\\\\\---|

  WAH______________________________________________
|---------------------------------------------------16-12h15-17-13h16-|
|---------------------------------------------------------------------|
|-6-3h4-6-3h4-7-4h6-7-4h6-9-6h7-9-6h7-10-7h9-10-7h9-------------------|
|---------------------------------------------------------------------|
|---------------------------------------------------------------------|
|---------------------------------------------------------------------|
  T     T     T     T     T     T      T      T      T        T

|-18-14h17-19-15h18-20-16h19-21-17h20-22-18h21-23-19h22-24b^^^^^\\\\\-----|
|-------------------------------------------------------------------------|
|-------------------------------------------------------------------------|
|-------------------------------------------------------------------------|
|-------------------------------------------------------------------------|
|-------------------------------------------------------------------------|
   T        T        T        T        T        T



 RIFF 1 x1 UNDER SOLO 1

 RIFF 1 VERSE x1


 RIFF 4 BREAK x1

|x3                                 |x1
|-----------------------------------|-----------------------------------|
|-----------------------------------|-----------------------------------|
|--------10---9b^^^-----------------|--------10---9b^^^-----------------|
|--------10-------------------------|--------10-------------------------|
|-----------------------------------|---------------------2-----1---3---|
|-0-0-0-0-------------0-0-0-0-0-0-0-|-0-0-0-0-----------0---3-2---2-1---|
  . . . .             . . . . . . .   . . . .           . . . . . .



 RIFF 2 BRIDGE x1

 RIFF 3 CHORUS x1


 FILL 1

|-----------------|
|-----------------|
|-----------------|
|-----------------|
|---2-----1---3---|
|-0---3-2---2-1---|
  . . . . . .



 RIFF 5 BREAK x1

|-----------------------------------|-----------------------------------|
|-----------------------------------|-----------------------------------|
|-----------------------------------|-----------------------------------|
|-----------------------------------|-----------------------------------|
|-2-2-2-2-3-----2-2-2-2-3-----------|-2-2-2-2-3-----2-2-2-2-3---6---5---|
|-0-0-0-0-1-----0-0-0-0-1-----------|-0-0-0-0-1-----0-0-0-0-1---4---3---|



|-----------------------------------|-----------------------------------|
|-----------------------------------|-----------------------------------|
|-----------------------------------|-----------------------------------|
|-----------------------------------|-----------------------------------|
|-2-2-2-2-3-----2-2-2-2-3-----------|-2-2-2-2-3-----2-2-2-2-6---5---3---|
|-0-0-0-0-1-----0-0-0-0-1-----------|-0-0-0-0-1-----0-0-0-0-4---3---1---|




 SOLO 2 KING
  WAH_______      WAH_______  WAH & BAR WAH_______      WAH____ WHA__ WAH
|---------------------------------------------------------------------2/14b^-|
|-1h2p1h2/5b^^^---1h2p1h2/5b^-0/\\\\\---1h2p1h2/5b^^^---1h2p1h2-1h2h4--------|
|----------------------------------------------------------------------------|
|----------------------------------------------------------------------------|
|----------------------------------------------------------------------------|
|----------------------------------------------------------------------------|

             WAH___________________________________________   WAH____________
|-12b^^^----------------------------------------------------------------------|
|-------------------------------------------------------------14-8h11-14-8h11-|
|------------6-2h5-7-3h6-8-4h7-9-5h8-10-6h9-11-7h10-12-8h11-------------------|
|-----------------------------------------------------------------------------|
|-----------------------------------------------------------------------------|
|-----------------------------------------------------------------------------|
             T     T     T     T      T      T       T         T       T
  WAH____________   WAH________________________________   WAH______________
|---------------------------------------------------------------------------|
|-14-8h11-14-8h11---17-11h14-17-11h14-17-11h14-17-11h14---20-14h17-20-14h17-|
|---------------------------------------------------------------------------|
|---------------------------------------------------------------------------|
|---------------------------------------------------------------------------|
|---------------------------------------------------------------------------|
   T       T         T        T        T        T          T        T
  WAH______________   WAH________________________________
|-----------------------------------------------------------|
|-20-14h17-20-14h17---23-17h20-23-17h20-23-17h20-23-17h20---|
|-----------------------------------------------------------|
|-----------------------------------------------------------|
|-----------------------------------------------------------|
|-----------------------------------------------------------|
   T        T          T        T        T        T

  WAH___________________________________________________________________
|-----------------------------------------------------151515141414131313-|
|-888888888888-9-9-9888-9-9-9121212121212111111121212--------------------|
|-------------101010999101010131313131313121212131313--------------------|
|------------------------------------------------------------------------|
|------------------------------------------------------------------------|
|------------------------------------------------------------------------|

  WAH & BAR     WAH & BAR/\/\/\/\/\/\/\/\ N.H. BAR      N.H. BAR
|-----------------------------------------------------------------------------|
|-----------------------------------------5//\\\\\\\\---3///\/\//\/\/\/\\-----|
|---------------3h4p3p0h4p3p0h4p3p0h4p3p0-5//\\\\\\\\-------------------------|
|-----------------------------------------------------------------------------|
|-----------------------------------------------------------------------------|
|-0//\\\\\\-------------------------------------------------------------------|



 RIFF 5A x1 UNDER SOLO 2

|-----------------------------------|-----------------------------------|
|-----------------------------------|-----------------------------------|
|-----------------------------------|-----------------------------------|
|-----------------------------------|-----------------------------------|
|-4-4-4-4-5-----4-4-4-4-5-----------|-4-4-4-4-5-----4-4-4-4-5---3---4---|
|-2-2-2-2-3-----2-2-2-2-3-----------|-2-2-2-2-3-----2-2-2-2-3---1---2---|



|-----------------------------------|-----------------------------------|
|-----------------------------------|-----------------------------------|
|-----------------------------------|-----------------------------------|
|-----------------------------------|-----------------------------------|
|-4-4-4-4-5-----4-4-4-4-5-----------|-4-4-4-4-5-----4-4-4-4-5---4---3---|
|-2-2-2-2-3-----2-2-2-2-3-----------|-2-2-2-2-3-----2-2-2-2-3---2---1---|




 RIFF 1 x1 UNDER SOLO 2

 RIFF 1 VERSE x1

 RIFF 4 BREAK x2


 RIFF 6 INTERLUDE x2

|x3                                 |x1
|-----------------------------------|-----------------------------------|
|-----------------------------------|-----------------------------------|
|-----------------------------------|-----------------------------------|
|-----------------------------------|-----------------------------------|
|---3/4---3---2---------------------|---3/4---3---2-------2-----1---3---|
|-0-1/2-0-1---0-----0-0-0-0-0-0-0-0-|-0-1/2-0-1---0-----0---3-2---2-1---|
  .     .           . . . . . . . .   . . . .           . . . . . .



 RIFF 2 BRIDGE x1

 RIFF 3 CHORUS x1


 FILL 1


 FILL 2 END

|---------------|
|---------------|
|---------------|
|---------------|
|-2-2-2-2-3-----|
|-0-0-0-0-1-----|
           x
Tap to rate this tab
# A B C D E F G H I J K L M N O P Q R S T U V W X Y Z