Song name
# A B C D E F G H I J K L M N O P Q R S T U V W X Y Z

Slayer - Reborn tab

#----------------------------------PLEASE NOTE---------------------------------#
#This file is the author's own work and represents their interpretation of the #
#song. You may only use this file for private study, scholarship, or research. #
#------------------------------------------------------------------------------#

REBORN
As recorded by Slayer
(From the 1986 Album REIGN IN BLOOD)

Transcribed by Fenian
	

Words by Kerry King Music by Jeff Hanneman

E5
0 2 x x x x
	
F#5
2 4 x x x x
	
G5
3 5 x x x x
	
Bb5
6 8 x x x x

A#5
x 1 3 x x x
	
F5
1 3 x x x x
	
A5
5 7 x x x x
	
G#5
4 6 x x x x

B5
7 9 x x x x
	
C5
8 10 x x x x
	
A#5VI
6 8 x x x x

Gtr I (Eb Ab Db Gb Bb Eb) - 'Untitled'
Gtr II (Eb Ab Db Gb Bb Eb) - 'Untitled'
Gtr III (Eb Ab Db Gb Bb Eb) - 'Untitled'

 Intro
  Q=128
  E5                  F#G5   E5            G5      Bb5
 4/4
  Gtr II
  E E   Q       Q     S E.   E E   Q       E E   S E.
  |                   | |    |             |     | |
  /                   / /    /             /     / /

  Gtr I
    PM|     PM|   PM|          PM|     PM|   PM|
  E S S S S S S E S S S E.   E S S S S S S E S S S E.
|--------------------------|--------------------------||
|--------------------------|--------------------------||
|--------------------------|--------------------------||
|--------------------------|--------------------------||
|-2-----9s8-----4-----4-5--|-2-----9s8-----5-----5-8--||
|-0-0-0-7s6-0-0-2-0-0-2-3--|-0-0-0-7s6-0-0-3-0-0-3-6--||


    Gtrs I, II
      PM|     PM|   PM|          PM|     PM|   PM|
    E S S S S S S E S S S E.   E S S S S S S E S S S E.  3x
||---------------------------|---------------------------||
||o--------------------------|--------------------------o||
||---------------------------|---------------------------||
||---------------------------|---------------------------||
||o-2-----9s8-----4-----4-5--|-2-----9s8-----5-----5-8--o||
||--0-0-0-7s6-0-0-2-0-0-2-3--|-0-0-0-7s6-0-0-3-0-0-3-6---||


  Q=224
  F#5                     G5                          A#5
  Gtr II
  E   E   Q       Q       E E   H               Q     Q
  |                       | |                         |
  /                       / /                         /

  Gtr I
  PM------------------------------------------------|
  S S S S S S S S S S S S E E   S S S S S S S S S S E Q
|-----------------------------|---------------------------||
|-----------------------------|---------------------------||
|-----------------------------|---------------------------||
|-----------------------------|-----------------------3---||
|-----------------------------|-----------------------1---||
|-2-2-2-2-2-2-2-2-3p2-2-2-3-3-|-2-2-2-2-2-2-2-2-3p2p0-----||


    Gtrs I, II
    PM------------------------------------------------|
    S S S S S S S S S S S S E E   S S S S S S S S S S E Q   3x
||------------------------------|---------------------------||
||o-----------------------------|--------------------------o||
||------------------------------|---------------------------||
||------------------------------|-----------------------3---||
||o-----------------------------|-----------------------1--o||
||--2-2-2-2-2-2-2-2-3p2-2-2-3-3-|-2-2-2-2-2-2-2-2-3p2p0-----||


   Verse 1 & 2
    Gtrs I, II
        PM--------|       PM--------|       PM--------|       PM--------|
    E E E E E E E E   E E E E E E E E   E E E E E E E E   E E E E E E E E
||------------------|-----------------|-----------------|------------------|
||o-----------------|-----------------|-----------------|------------------|
||------------------|-----------------|-----------------|------------------|
||------------------|-----------------|-----------------|------------------|
||o-2-2-------------|-2-2-------------|-2-2-------------|-2-2--------------|
||--0-0-0-0-4-0-3-0-|-0-0-0-0-4-0-3-0-|-0-0-0-0-4-0-3-0-|-0-0-0-0-4-0-3-0--|


      PM--------|       PM--------|       PM--------|       PM--------|
  E E E E E E E E   E E E E E E E E   E E E E E E E E   E E E E E E E E
|-----------------|-----------------|-----------------|-----------------|
|-----------------|-----------------|-----------------|-----------------|
|-----------------|-----------------|-----------------|-----------------|
|-----------------|-----------------|-----------------|-----------------|
|-2-2-------------|-2-2-------------|-2-2-------------|-2-2-------------|
|-0-0-0-0-4-0-3-0-|-0-0-0-0-4-0-3-0-|-0-0-0-0-4-0-3-0-|-0-0-0-0-4-0-3-0-|


  PM--------------------------|      PM--------------------------|
  E E E E E E E E   E E E E E E q    E E E E E E E E   E E E E E E q
|-----------------|----------------|-----------------|----------------|
|-----------------|----------------|-----------------|----------------|
|-----------------|----------------|-----------------|----------------|
|-----------------|----------------|-----------------|----------------|
|-3-3-3-3S7-7-7-7-|-6-6-6-6-6-6-5--|-3-3-3-3S7-7-7-7-|-6-6-6-6-6-6-9--|
|-1-1-1-1S5-5-5-5-|-4-4-4-4-4-4-3--|-1-1-1-1S5-5-5-5-|-4-4-4-4-4-4-7--|


  PM--------------------------|      PM--------------------------|
  E E E E E E E E   E E E E E E q    E E E E E E E E   E E E E E E q
|-----------------|----------------|-----------------|----------------|
|-----------------|----------------|-----------------|----------------|
|-----------------|----------------|-----------------|----------------|
|-----------------|----------------|-----------------|----------------|
|-3-3-3-3S7-7-7-7-|-6-6-6-6-6-6-5--|-3-3-3-3S7-7-7-7-|-6-6-6-6-6-6-9--|
|-1-1-1-1S5-5-5-5-|-4-4-4-4-4-4-3--|-1-1-1-1S5-5-5-5-|-4-4-4-4-4-4-7--|


  1.
  PM------------------------------------------------|
  S S S S S S S S S S S S E E   S S S S S S S S S S E Q
|-----------------------------|---------------------------|
|-----------------------------|---------------------------|
|-----------------------------|---------------------------|
|-----------------------------|-----------------------3---|
|-----------------------------|-----------------------1---|
|-2-2-2-2-2-2-2-2-3p2-2-2-3-3-|-2-2-2-2-2-2-2-2-3p2p0-----|


  PM------------------------------------------------|
  S S S S S S S S S S S S E E   S S S S S S S S S S E Q
|-----------------------------|----------------------------||
|-----------------------------|---------------------------o||
|-----------------------------|----------------------------||
|-----------------------------|-----------------------3----||
|-----------------------------|-----------------------1---o||
|-2-2-2-2-2-2-2-2-3p2-2-2-3-3-|-2-2-2-2-2-2-2-2-3p2p0------||


  2.
  F#5
  Gtr II
  E   E   Q       H             W
  |
  /

  Gtr I
  PM------------------------------------------------|
  S S S S S S S S S S S S E E   S S S S S S S S S S E Q
|-----------------------------|---------------------------|
|-----------------------------|---------------------------|
|-----------------------------|---------------------------|
|-----------------------------|-----------------------3---|
|-----------------------------|-----------------------1---|
|-2-2-2-2-2-2-2-2-3p2-2-2-3-3-|-2-2-2-2-2-2-2-2-3p2p0-----|


                          G5                          A#5
  E   E   Q       Q       E E   H               Q     Q
  |                       | |                         |
  /                       / /                         /

  PM------------------------------------------------|
  S S S S S S S S S S S S E E   S S S S S S S S S S E Q
|-----------------------------|---------------------------|
|-----------------------------|---------------------------|
|-----------------------------|---------------------------|
|-----------------------------|-----------------------3---|
|-----------------------------|-----------------------1---|
|-2-2-2-2-2-2-2-2-3p2-2-2-3-3-|-2-2-2-2-2-2-2-2-3p2p0-----|


    Gtrs I, II
    PM------------------------------------------------|
    S S S S S S S S S S S S E E   S S S S S S S S S S E Q
||------------------------------|---------------------------||
||o-----------------------------|--------------------------o||
||------------------------------|---------------------------||
||------------------------------|-----------------------3---||
||o-----------------------------|-----------------------1--o||
||--2-2-2-2-2-2-2-2-3p2-2-2-3-3-|-2-2-2-2-2-2-2-2-3p2p0-----||


 Guitar Solo I
  Gtr III
   E    S  S  E    E    S  S  S  S  S  E.
|-13---15-13-12---------------------------------|
|-----------------15---13p12-13p12--------------|
|----------------------------------14-12--------|
|-----------------------------------------------|
|-----------------------------------------------|
|-----------------------------------------------|
|
| Gtrs I, II
|  PM--------------------------------------------
|  S S  S  S  S S  S S  S  S  S  S  S  S   S  S
|-----------------------------------------------|
|-----------------------------------------------|
|-----------------------------------------------|
|-----------------------------------------------|
|--6-6--6--6--6-6--6-6S10-10-10-10-10-10--10-10-|
|--4-4--4--4--4-4--4-4S=8--8--8--8--8--8---8--8-|


                 ~~~~~
   Q            +H                  E   S  S
|---------------------------------------------|
|----------------------------------(0)--------|
|-14b16========(14)r---------------(0)-14-12--|
|---------------------------------------------|
|---------------------------------------------|
|---------------------------------------------|
|
|--------------------------------|
|  S     S S S   S   S S S S S S S  q
|---------------------------------------------|
|---------------------------------------------|
|---------------------------------------------|
|---------------------------------------------|
|--9-----9-9-9---9---9-9-9-9-9-9-9--8---------|
|--7-----7-7-7---7---7-7-7-7-7-7-7--6---------|


   S  S  S  S  S  S  S  S  E     S  S  E     S  S
|-------------------------------------------------|
|-------------------------------------------------|
|-11-12-14-11-12p11-------------------------------|
|-------------------14p12p11----14p12p11----14-12-|
|-------------------------------------------------|
|-------------------------------------------------|
|
|  PM----------------------------------------------
|  S  S  S  S  S  S  S  S  S  S  S  S  S  S  S  S
|-------------------------------------------------|
|-------------------------------------------------|
|-------------------------------------------------|
|-------------------------------------------------|
|--6--6--6--6--6--6--6--6S10-10-10-10-10-10-10-10-|
|--4--4--4--4--4--4--4--4S=8--8--8--8--8--8--8--8-|


                  ~~
   |----3----|
   E    E    E    H               Q
|------------------------------------|
|------------------------------------|
|------------------------------------|
|-11---------------------------------|
|------14---12---11------------------|
|------------------------------------|
|
|-------------------------------|
|  S S    S    S  S S S S S S S S q
|------------------------------------|
|------------------------------------|
|------------------------------------|
|------------------------------------|
|--9-9----9----9--9-9-9-9-9-9-9-9-8--|
|--7-7----7----7--7-7-7-7-7-7-7-7-6--|


   E    S  S  S  S  S  S  S  S  E     S  E.
|----------------------------------------------------|
|----------------------------------------------------|
|------------------------------------12-14b16========|
|---------------------12-14p12-14--------------------|
|-12h==14h15-12h14h15--------------------------------|
|----------------------------------------------------|
|
|  PM-------------------------------------------------
|  S S  S  S  S  S  S  S  S  S  S  S  S  S      S  S
|----------------------------------------------------|
|----------------------------------------------------|
|----------------------------------------------------|
|----------------------------------------------------|
|--6-6--6--6--6--6--6--6S10-10-10-10-10-10-----10-10-|
|--4-4--4--4--4--4--4--4S=8--8--8--8--8--8------8--8-|


   +Q         +Q            +E         +Q.
|-------------------------------------------------|
|-------------------------------------------------|
|-(14)r======(14)b17r======(14)b17====(14)r\------|
|-------------------------------------------------|
|-------------------------------------------------|
|-------------------------------------------------|
|
|--------------------------------------------|
|   S  S S S   S     S S S   S      S   S    S q
|-------------------------------------------------|
|-------------------------------------------------|
|-------------------------------------------------|
|-------------------------------------------------|
|---9--9-9-9---9-----9-9-9---9------9---9----9-8--|
|---7--7-7-7---7-----7-7-7---7------7---7----7-6--|


  ~~~~~~~~~~~~~~~~~~~~
  H               +S   E.        E     E      E   S S S S E   +Q        +E   E
|-------------------------------------------|----------------------------------|
|-------------------------------------------|----------------------------------|
|-4---------------(4)--4---------2-----4----|-5---4-2--------------------------|
|-------------------------------------------|---------5-4-2---(2)-------(2)/---|
|-------------------------------------------|----------------------------------|
|-------------------------------------------|--------------------------------0-|
|
| PM------------------------------------------------------------------|
| S S S S S S S S  S   S   S  S  S  S  S  S   S S S S S S S S  S  S S S  q
|-------------------------------------------|----------------------------------|
|-------------------------------------------|----------------------------------|
|-------------------------------------------|----------------------------------|
|-------------------------------------------|----------------------------------|
|-6-6-6-6-6-6-6-6S10--10--10-10-10-10-10-10-|-9-9-9-9-9-9-9-9--9--9-9-9--8-----|
|-4-4-4-4-4-4-4-4S=8---8---8--8--8--8--8--8-|-7-7-7-7-7-7-7-7--7--7-7-7--6-----|


   S  S  S  S  S  S  E  S  S  S  S  S  S  S  S
|----------------------------------------------|
|----------------------------------------------|
|----------------------------------------------|
|----------------------13-14-15-16-15-15-17-17-|
|-------14-14-15-15-14-------------------------|
|-15-15----------------------------------------|
|
|  PM-------------------------------------------
|  E     S  S  E     E  E     S  S  E     E
|----------------------------------------------|
|----------------------------------------------|
|----------------------------------------------|
|----------------------------------------------|
|----------------------------------------------|
|--0-----0--0--0-----0--1-----1--1--1-----1----|


               ~~~~~~~~~
   S  S  S  S  Q    +E   S  S  E  E
|-----------------------------------|
|--------------------------------18-|
|-15-17-15-15-17---(17)-15-17-15----|
|-----------------------------------|
|-----------------------------------|
|-----------------------------------|
|
|------------------|
|  E     S  S  E E   Q         q
|-----------------------------------|
|-----------------------------------|
|-----------------------------------|
|-----------------------------------|
|--------------------5---------4----|
|--4-----4--4--4-4---3---------2----|


                            |--3---|
   S  S  S  S  S  S  S  S  +S   S  S  S  S  S  S  S  S
|-------------15-16-15-18-(18)p16p15-------------------|
|-15-17-17-17------------------------18-16-15h16p15----|
|---------------------------------------------------15-|
|------------------------------------------------------|
|------------------------------------------------------|
|------------------------------------------------------|
|
|  PM---------------------------------------------------
|  E     S  S  E     E      E         S  S  E     E
|------------------------------------------------------|
|------------------------------------------------------|
|------------------------------------------------------|
|------------------------------------------------------|
|------------------------------------------------------|
|--0-----0--0--0-----0------1---------1--1--1-----1----|


         ~~~
   S  S  Q.        +E     E  E  E
|----------------------------------|
|---------------------------19-22--|
|-17-15-17--------(17)\-/21--------|
|----------------------------------|
|----------------------------------|
|----------------------------------|
|
|-----------------|
|  E     S  S E E   Q        q
|----------------------------------|
|----------------------------------|
|----------------------------------|
|----------------------------------|
|-------------------5--------4-----|
|--4-----4--4-4-4---3--------2-----|


   +E       +E     +E       +E   +E.    S  S  S  E
|--------------------------------------19----19-22-|
|-(22)b25==(22)r==(22)b25==(22)r(22)------22-------|
|--------------------------------------------------|
|--------------------------------------------------|
|--------------------------------------------------|
|--------------------------------------------------|
|
|   PM----------------------------------------------
|   E        S  S   E        E    E  S  S  E     E
|--------------------------------------------------|
|--------------------------------------------------|
|--------------------------------------------------|
|--------------------------------------------------|
|--------------------------------------------------|
|---0--------0--0---0--------0----1--1--1--1-----1-|


   +E       +E      E      +E   +E      S  S  E  S  S
|-(22)b24==(22)r---22b24==(22)r(22)b24-22-19-22-19----|
|--------------------------------------------------22-|
|-----------------------------------------------------|
|-----------------------------------------------------|
|-----------------------------------------------------|
|-----------------------------------------------------|
|
|------------------------------|
|   E        S   S  E       E    Q            q
|-----------------------------------------------------|
|-----------------------------------------------------|
|-----------------------------------------------------|
|-----------------------------------------------------|
|--------------------------------5------------4-------|
|---4--------4---4--4-------4----3------------2-------|


   |--3--|
   S  S  S  E    Q        +Q        E  S  S    E  a  Q.        +E   +Q.
|-19----------------------------------------|-------------------------------||
|----22p19-22---22-------(22)---------------|-------------------------------||
|---------------21b24====(21)r-----19-21p19-|-21-19h21--------(21)-(21)\----||
|-------------------------------------------|-------------------------------||
|-------------------------------------------|-------------------------------||
|-------------------------------------------|-------------------------------||
|
|  PM---------------------------------------------------------|
|  E        S S  E     E   E   S S  E  E       E     S  S E E   Q        q
|-------------------------------------------|-------------------------------||
|-------------------------------------------|-------------------------------||
|-------------------------------------------|-------------------------------||
|-------------------------------------------|-------------------------------||
|-------------------------------------------|-------------------5--------4--||
|--0--------0-0--0-----0---1---1-1--1--1----|--4-----4--4-4-4---3--------2--||


    Gtrs I, II
    PM------------------------------------------------|
    S S S S S S S S S S S S E E   S S S S S S S S S S E Q
||------------------------------|---------------------------||
||o-----------------------------|--------------------------o||
||------------------------------|---------------------------||
||------------------------------|-----------------------3---||
||o-----------------------------|-----------------------1--o||
||--2-2-2-2-2-2-2-2-3p2-2-2-3-3-|-2-2-2-2-2-2-2-2-3p2p0-----||


   Verse 3
    PM------------------------------------------------|
    S S S S S S S S S S S S E E   S S S S S S S S S S E Q   4x
||------------------------------|---------------------------||
||o-----------------------------|--------------------------o||
||------------------------------|---------------------------||
||------------------------------|-----------------------3---||
||o-----------------------------|-----------------------1--o||
||--2-2-2-2-2-2-2-2-3p2-2-2-3-3-|-2-2-2-2-2-2-2-2-3p2p0-----||


    PM--------------------------|      PM--------------------------|
    E E E E E E E E   E E E E E E q    E E E E E E E E   E E E E E E q
||------------------|----------------|-----------------|------------------||
||o-----------------|----------------|-----------------|-----------------o||
||------------------|----------------|-----------------|------------------||
||------------------|----------------|-----------------|------------------||
||o-3-3-3-3S7-7-7-7-|-6-6-6-6-6-6-5--|-3-3-3-3S7-7-7-7-|-6-6-6-6-6-6-9---o||
||--1-1-1-1S5-5-5-5-|-4-4-4-4-4-4-3--|-1-1-1-1S5-5-5-5-|-4-4-4-4-4-4-7----||


    S S E S S E S S E S S E   S S E S S E S S E S S E  4x
||--------------------------|--------------------------||
||o-------------------------|-------------------------o||
||--------------------------|--------------------------||
||--------------------------|--------------------------||
||o-------------------------|-------------------------o||
||--3-3-2-5-3-2-3-3-2-5-3-2-|-3-3-2-5-3-2-3-3-2-5-3-2--||


 Guitar Solo II
  Gtr III
               ~~~~~~~
   Q.          E  +Q.        S  S
|-21b24-------21-(21)-------21-21-|
|---------------------------------|
|---------------------------------|
|---------------------------------|
|---------------------------------|
|---------------------------------|
|
| Gtrs I, II
|  PM------------------------------
|  E    S S E  E   E  S S E  E
|---------------------------------|
|---------------------------------|
|---------------------------------|
|---------------------------------|
|---------------------------------|
|--0----0-0-0--0---1--1-1-1--1----|


   S  S  S  S  S  S  S  S  S  S  S  S  S  S  S  S
|-19-21-19s17-17-19-17s15-15-17-15s14-14-15-14s13--|
|--------------------------------------------------|
|--------------------------------------------------|
|--------------------------------------------------|
|--------------------------------------------------|
|--------------------------------------------------|
|
|-------------------------|
|  E     S  S  E     E     Q           q
|--------------------------------------------------|
|--------------------------------------------------|
|--------------------------------------------------|
|--------------------------------------------------|
|--------------------------5-----------4-----------|
|--4-----4--4--4-----4-----3-----------2-----------|


         |---3---|     |--3--|
   S  S  S  S    S  E  S  S  S  S  S  E    S  S  S  S
|-13-13-15-15p==13s12---------------------------------|
|---------------------13-13p12-13-12-12---------------|
|-----------------------------------------12-12-12-12-|
|-----------------------------------------------------|
|-----------------------------------------------------|
|-----------------------------------------------------|
|
|  PM--------------------------------------------------
|  E     S    S     E  E        E     S S  E     E
|-----------------------------------------------------|
|-----------------------------------------------------|
|-----------------------------------------------------|
|-----------------------------------------------------|
|-----------------------------------------------------|
|--0-----0----0-----0--0--------1-----1-1--1-----1----|


                     ~~~~~~~
   S  S  S  S  S  S  E  +Q    Q
|---------------------------------|
|---------------------------------|
|-14-12-11------------------------|
|----------14-12-11-11-(11)--11\--|
|---------------------------------|
|---------------------------------|
|
|----------------------|
|  E     S  S  E     E   Q    q
|---------------------------------|
|---------------------------------|
|---------------------------------|
|---------------------------------|
|------------------------5----4---|
|--4-----4--4--4-----4---3----2---|


                /1.5\
                ~~~~~~~~~~~
                                       |--3--|
  Q        +E  +E     +Q.        S S   E E   E   E E E E Q
|------------------------------------|----------------------|
|------------------------------------|----------------------|
|--------------------------------4-4-|-6-4------------------|
|-2b4======(2)-(2)----(2)r-----------|-------6---4-6-3------|
|------------------------------------|-----------------4-4--|
|------------------------------------|----------------------|
|
| PM-------------------------------------------------|
| E    S S  E   E      E   S S E E     E   S   S E E Q   q
|------------------------------------|----------------------|
|------------------------------------|----------------------|
|------------------------------------|----------------------|
|------------------------------------|----------------------|
|------------------------------------|---------------5---4--|
|-0----0-0--0---0------1---1-1-1-1---|-4---4---4-4-4-3---2--|


             \1.5__________________|   /1.5_______
  H         +H               E E   E E H
|--------------------------|---------------------|
|--------------------------|---------------------|
|--------------------------|---------------------|
|--------------------------|-----------0---------|
|-2---------(2)------------|---------------------|
|--------------------------|-0-0---0-------------|
|
| PM-----------------------------------|
| E S S E E  E     S S E E   E S S E E Q      q
|--------------------------|---------------------|
|--------------------------|---------------------|
|--------------------------|---------------------|
|--------------------------|---------------------|
|--------------------------|-----------5------4--|
|-0-0-0-0-0--1-----1-1-1-1-|-4-4-4-4-4-3------2--|


                              \2.5__________________
  +E  Q.       +H            +H.               q
|--------------------------|----------------------*|
|-----0--------(0)---------|-(0)------------------*|
|--------------------------|----------------------*|
|-(0)----------------------|----------------------*|
|--------------------------|----------------------*|
|--------------------------|-------------------0--*|
|
|  PM---------------------------------------|
|  E  S  S E E  E  S S E E    E     S S E E Q  q
|--------------------------|----------------------*|
|--------------------------|----------------------*|
|--------------------------|----------------------*|
|--------------------------|----------------------*|
|--------------------------|----------------5--4--*|
|--0--0--0-0-0--1--1-1-1-1-|--4-----4-4-4-4-3--2--*|



Duration Legend
---------------
W - whole; H - half; Q - quarter; E - 8th; S - 16th; T - 32nd; X - 64th; a - acciaccatura
+ - note tied to previous; . - note dotted; .. - note double dotted
Uncapitalized letters represent notes that are staccato (1/2 duration)
Irregular groupings are notated above the duration line
Duration letters will always appear directly above the note/fret number it represents the
duration for.  Duration letters with no fret number below them represent rests.  Multi-
bar rests are notated in the form Wxn, where n is the number of bars to rest for.  Low
melody durations appear below the staff

Tablature Legend
----------------
 h   - hammer-on
 p   - pull-off
 b   - bend
 pb  - pre-bend
 r   - bend release (if no number after the r, then release immediately)
 /\  - slide into or out of (from/to "nowhere")
 s   - legato slide
 S   - shift slide
 - natural harmonic
[n]  - artificial harmonic
n(n) - tapped harmonic
 ~   - vibrato
 tr  - trill
 T   - tap
 TP  - trem. picking
 PM  - palm muting
\n/  - tremolo bar dip; n = amount to dip
 \n  - tremolo bar down
 n/  - tremolo bar up
/n\  - tremolo bar inverted dip
 =   - hold bend; also acts as connecting device for hammers/pulls
 <> - volume swell (louder/softer)
 x   - on rhythm slash represents muted slash
 o   - on rhythm slash represents single note slash

Misc Legend
-----------
 |  - bar
||  - double bar
||o - repeat start
o|| - repeat end
*|  - double bar (ending)
 :  - bar (freetime)
 $  - Segno
 &  - Coda
Tempo markers -  = BPM(8/16=s8/s16), where s8 = swing 8ths, s16 = swing 16ths

Tap to rate this tab
# A B C D E F G H I J K L M N O P Q R S T U V W X Y Z