Song name
# A B C D E F G H I J K L M N O P Q R S T U V W X Y Z

Slayer - Raining Blood tab

Ok this is my first tab ever ok and I've only got the first bit figured out but this is 
awesome song and I found out a way to play the intro easily. This tab uses regular tuning.

----------------------------------------------------------------|
----------------------------------------------------------------|
----------------------------------------------------------------|
----------------------------------------------------------------|X2
------------13-14-13----12-11----11-10--------------------------|
---0-0-0-12----------12-------12--------------------------------|
Then
----------------------------------------------------------------|
----------------------------------------------------------------|
----------------------------------------------------------------|
------------13-14-13----12-11---11-10---------------------------|X2
----------------------------------------------------------------|
---0-0-0-12----------12-------12--------------------------------|
Then
------------------------------------------------------------------|
------------------------------------------------------------------|
------------------------------------------------------------------|
----------------------------------------------------------3-2-----|X2
--------------------------------------------------------4-----3-2-|
--000-000-000-000-000-000-000-000-000-000-000-000-0-2-4-----------|
Then
-----------------------------------------------------------------|
-----------------------------------------------------------------|
-----------------------------------------------------------------|
-----------------------------------------------------------------|As Many
-----------------------------------------------------------------|Times As
-5-3-2-0-6-4-3-0-------------------------------------------------|Needed

 So that's it for now. For any comments or questions email me at toddjjhall@sympatico.ca
Tap to rate this tab
# A B C D E F G H I J K L M N O P Q R S T U V W X Y Z